0
SECTION
2
HEADER
9
$EXTMIN
10
564639.198
20
6589625.352
9
$EXTMAX
10
564961.958
20
6589853.566
9
$LTSCALE
40
1
9
$TEXTSTYLE
7
STANDARD
0
ENDSEC
0
SECTION
2
TABLES
0
TABLE
2
LTYPE
70
4
0
LTYPE
2
XKITLINE00
70
64
3
XKITLINE00
72
65
73
0
40
0.00
0
LTYPE
2
XKITLINE01
70
64
3
XKITLINE01
72
65
73
2
40
2.0
49
1.0
49
-1.0
0
LTYPE
2
XKITLINE02
70
64
3
XKITLINE02
72
65
73
2
40
4.0
49
2.0
49
-2.0
0
LTYPE
2
XKITLINE03
70
64
3
XKITLINE03
72
65
73
4
40
5.0
49
3.0
49
-1.0
49
1.0
49
-1.0
0
ENDTAB
0
TABLE
2
STYLE
70
2
0
STYLE
2
XKITFONT
70
0
40
0.00
41
1.0
50
0.00
71
0
42
1.0
3
MONOTXT
0
ENDTAB
0
ENDSEC
0
SECTION
2
ENTITIES
0
LINE
10
564772.746
20
6589759.300
30
0.000
11
564772.746
21
6589759.301
31
0.000
8
0
6
XKITLINE02
62
23
0
LINE
10
564772.747
20
6589759.301
30
0.000
11
564772.746
21
6589759.301
31
0.000
8
0
6
XKITLINE02
62
23
0
LINE
10
564877.649
20
6589838.145
30
0.000
11
564877.030
21
6589837.527
31
0.000
8
0
6
XKITLINE00
62
7
0
LINE
10
564877.030
20
6589838.145
30
0.000
11
564877.649
21
6589837.527
31
0.000
8
0
6
XKITLINE00
62
7
0
LINE
10
564940.368
20
6589639.454
30
0.000
11
564939.749
21
6589638.835
31
0.000
8
0
6
XKITLINE00
62
7
0
LINE
10
564939.749
20
6589639.454
30
0.000
11
564940.368
21
6589638.835
31
0.000
8
0
6
XKITLINE00
62
7
0
LINE
10
564839.005
20
6589672.177
30
0.000
11
564838.386
21
6589671.558
31
0.000
8
0
6
XKITLINE00
62
7
0
LINE
10
564838.386
20
6589672.177
30
0.000
11
564839.005
21
6589671.558
31
0.000
8
0
6
XKITLINE00
62
7
0
LINE
10
564738.489
20
6589707.223
30
0.000
11
564737.870
21
6589706.605
31
0.000
8
0
6
XKITLINE00
62
7
0
LINE
10
564737.870
20
6589707.223
30
0.000
11
564738.489
21
6589706.605
31
0.000
8
0
6
XKITLINE00
62
7
0
LINE
10
564771.325
20
6589707.602
30
0.000
11
564770.706
21
6589706.984
31
0.000
8
0
6
XKITLINE00
62
7
0
LINE
10
564770.706
20
6589707.602
30
0.000
11
564771.325
21
6589706.984
31
0.000
8
0
6
XKITLINE00
62
7
0
LINE
10
564749.243
20
6589800.216
30
0.000
11
564748.624
21
6589799.597
31
0.000
8
0
6
XKITLINE00
62
7
0
LINE
10
564748.624
20
6589800.216
30
0.000
11
564749.243
21
6589799.597
31
0.000
8
0
6
XKITLINE00
62
7
0
LINE
10
564706.477
20
6589812.102
30
0.000
11
564705.859
21
6589811.484
31
0.000
8
0
6
XKITLINE00
62
7
0
LINE
10
564705.859
20
6589812.102
30
0.000
11
564706.477
21
6589811.484
31
0.000
8
0
6
XKITLINE00
62
7
0
LINE
10
564891.032
20
6589658.438
30
0.000
11
564890.413
21
6589657.820
31
0.000
8
0
6
XKITLINE00
62
7
0
LINE
10
564890.413
20
6589658.438
30
0.000
11
564891.032
21
6589657.820
31
0.000
8
0
6
XKITLINE00
62
7
0
LINE
10
564737.961
20
6589843.102
30
0.000
11
564736.531
21
6589843.430
31
0.000
8
0
6
XKITLINE01
62
2
0
LINE
10
564777.691
20
6589833.859
30
0.000
11
564737.961
21
6589843.102
31
0.000
8
0
6
XKITLINE01
62
2
0
LINE
10
564780.684
20
6589845.959
30
0.000
11
564777.691
21
6589833.859
31
0.000
8
0
6
XKITLINE01
62
2
0
LINE
10
564771.488
20
6589759.109
30
0.000
11
564771.535
21
6589759.535
31
0.000
8
0
6
XKITLINE03
62
30
0
LINE
10
564772.840
20
6589760.535
30
0.000
11
564773.840
21
6589759.535
31
0.000
8
0
6
XKITLINE03
62
30
0
LINE
10
564772.535
20
6589760.535
30
0.000
11
564772.641
21
6589760.535
31
0.000
8
0
6
XKITLINE03
62
30
0
LINE
10
564772.641
20
6589760.535
30
0.000
11
564772.746
21
6589760.535
31
0.000
8
0
6
XKITLINE03
62
30
0
LINE
10
564772.746
20
6589760.535
30
0.000
11
564772.840
21
6589760.535
31
0.000
8
0
6
XKITLINE03
62
30
0
LINE
10
564773.840
20
6589759.535
30
0.000
11
564774.004
21
6589759.109
31
0.000
8
0
6
XKITLINE03
62
30
0
LINE
10
564774.004
20
6589759.109
30
0.000
11
564774.004
21
6589759.066
31
0.000
8
0
6
XKITLINE03
62
30
0
LINE
10
564774.004
20
6589759.066
30
0.000
11
564773.004
21
6589758.066
31
0.000
8
0
6
XKITLINE03
62
30
0
LINE
10
564773.004
20
6589758.066
30
0.000
11
564772.918
21
6589758.066
31
0.000
8
0
6
XKITLINE03
62
30
0
LINE
10
564772.918
20
6589758.066
30
0.000
11
564772.832
21
6589758.066
31
0.000
8
0
6
XKITLINE03
62
30
0
LINE
10
564772.832
20
6589758.066
30
0.000
11
564772.660
21
6589758.066
31
0.000
8
0
6
XKITLINE03
62
30
0
LINE
10
564772.660
20
6589758.066
30
0.000
11
564772.574
21
6589758.066
31
0.000
8
0
6
XKITLINE03
62
30
0
LINE
10
564772.574
20
6589758.066
30
0.000
11
564772.488
21
6589758.066
31
0.000
8
0
6
XKITLINE03
62
30
0
LINE
10
564772.488
20
6589758.066
30
0.000
11
564771.488
21
6589759.066
31
0.000
8
0
6
XKITLINE03
62
30
0
LINE
10
564771.488
20
6589759.066
30
0.000
11
564771.488
21
6589759.109
31
0.000
8
0
6
XKITLINE03
62
30
0
LINE
10
564771.535
20
6589759.535
30
0.000
11
564772.535
21
6589760.535
31
0.000
8
0
6
XKITLINE03
62
30
0
LINE
10
564772.746
20
6589759.289
30
0.000
11
564772.746
21
6589759.215
31
0.000
8
0
6
XKITLINE01
62
200
0
LINE
10
564772.648
20
6589759.469
30
0.000
11
564772.664
21
6589759.469
31
0.000
8
0
6
XKITLINE00
62
5
0
LINE
10
564772.754
20
6589759.469
30
0.000
11
564772.770
21
6589759.469
31
0.000
8
0
6
XKITLINE00
62
5
0
LINE
10
564772.641
20
6589759.508
30
0.000
11
564772.641
21
6589759.484
31
0.000
8
0
6
XKITLINE00
62
5
0
LINE
10
564772.746
20
6589759.508
30
0.000
11
564772.746
21
6589759.484
31
0.000
8
0
6
XKITLINE00
62
5
0
LINE
10
564772.535
20
6589759.508
30
0.000
11
564772.535
21
6589759.484
31
0.000
8
0
6
XKITLINE00
62
5
0
LINE
10
564772.754
20
6589759.398
30
0.000
11
564772.770
21
6589759.398
31
0.000
8
0
6
XKITLINE00
62
5
0
LINE
10
564772.840
20
6589759.512
30
0.000
11
564772.840
21
6589759.488
31
0.000
8
0
6
XKITLINE00
62
5
0
LINE
10
564772.848
20
6589759.469
30
0.000
11
564772.863
21
6589759.469
31
0.000
8
0
6
XKITLINE00
62
5
0
LINE
10
564772.543
20
6589759.469
30
0.000
11
564772.559
21
6589759.469
31
0.000
8
0
6
XKITLINE00
62
5
0
LINE
10
564953.016
20
6589681.469
30
0.000
11
564953.016
21
6589681.426
31
0.000
8
0
6
XKITLINE01
62
7
0
LINE
10
564952.930
20
6589681.469
30
0.000
11
564952.930
21
6589681.426
31
0.000
8
0
6
XKITLINE01
62
7
0
LINE
10
564952.844
20
6589681.469
30
0.000
11
564952.844
21
6589681.426
31
0.000
8
0
6
XKITLINE01
62
7
0
LINE
10
564772.723
20
6589759.156
30
0.000
11
564772.688
21
6589759.156
31
0.000
8
0
6
XKITLINE01
62
7
0
LINE
10
564772.488
20
6589759.109
30
0.000
11
564772.488
21
6589759.066
31
0.000
8
0
6
XKITLINE01
62
7
0
LINE
10
564773.004
20
6589759.109
30
0.000
11
564773.004
21
6589759.066
31
0.000
8
0
6
XKITLINE01
62
7
0
LINE
10
564772.918
20
6589759.109
30
0.000
11
564772.918
21
6589759.066
31
0.000
8
0
6
XKITLINE01
62
7
0
LINE
10
564772.746
20
6589759.109
30
0.000
11
564772.746
21
6589759.066
31
0.000
8
0
6
XKITLINE01
62
7
0
LINE
10
564772.832
20
6589759.109
30
0.000
11
564772.832
21
6589759.066
31
0.000
8
0
6
XKITLINE01
62
7
0
LINE
10
564772.574
20
6589759.109
30
0.000
11
564772.574
21
6589759.066
31
0.000
8
0
6
XKITLINE01
62
7
0
LINE
10
564772.660
20
6589759.109
30
0.000
11
564772.660
21
6589759.066
31
0.000
8
0
6
XKITLINE01
62
7
0
LINE
10
564822.770
20
6589715.473
30
0.000
11
564823.652
21
6589715.152
31
0.000
8
0
6
XKITLINE00
62
5
0
LINE
10
564772.832
20
6589759.109
30
0.000
11
564772.746
21
6589759.109
31
0.000
8
0
6
XKITLINE00
62
7
0
LINE
10
564933.113
20
6589711.531
30
0.000
11
564931.113
21
6589711.531
31
0.000
8
0
6
XKITLINE00
62
7
0
LINE
10
564776.215
20
6589757.188
30
0.000
11
564774.215
21
6589757.188
31
0.000
8
0
6
XKITLINE00
62
7
0
LINE
10
564772.535
20
6589817.203
30
0.000
11
564770.535
21
6589817.203
31
0.000
8
0
6
XKITLINE00
62
7
0
LINE
10
564931.316
20
6589712.043
30
0.000
11
564929.316
21
6589712.043
31
0.000
8
0
6
XKITLINE00
62
7
0
LINE
10
564772.746
20
6589759.215
30
0.000
11
564772.746
21
6589759.180
31
0.000
8
0
6
XKITLINE00
62
7
0
LINE
10
564772.746
20
6589759.180
30
0.000
11
564772.746
21
6589759.156
31
0.000
8
0
6
XKITLINE00
62
7
0
LINE
10
564772.832
20
6589759.109
30
0.000
11
564772.918
21
6589759.109
31
0.000
8
0
6
XKITLINE00
62
7
0
LINE
10
564784.629
20
6589698.605
30
0.000
11
564784.348
21
6589698.473
31
0.000
8
0
6
XKITLINE00
62
7
0
LINE
10
564772.660
20
6589759.109
30
0.000
11
564772.574
21
6589759.109
31
0.000
8
0
6
XKITLINE00
62
7
0
LINE
10
564953.016
20
6589681.469
30
0.000
11
564952.930
21
6589681.469
31
0.000
8
0
6
XKITLINE00
62
7
0
LINE
10
564952.930
20
6589681.469
30
0.000
11
564952.844
21
6589681.469
31
0.000
8
0
6
XKITLINE00
62
7
0
LINE
10
564772.746
20
6589759.109
30
0.000
11
564772.660
21
6589759.109
31
0.000
8
0
6
XKITLINE00
62
7
0
LINE
10
564772.918
20
6589759.109
30
0.000
11
564773.004
21
6589759.109
31
0.000
8
0
6
XKITLINE00
62
7
0
LINE
10
564772.574
20
6589759.109
30
0.000
11
564772.488
21
6589759.109
31
0.000
8
0
6
XKITLINE00
62
7
0
LINE
10
564772.746
20
6589759.156
30
0.000
11
564772.746
21
6589759.109
31
0.000
8
0
6
XKITLINE00
62
7
0
LINE
10
564878.434
20
6589661.621
30
0.000
11
564879.117
21
6589661.418
31
0.000
8
0
6
XKITLINE00
62
7
0
LINE
10
564878.609
20
6589662.496
30
0.000
11
564878.434
21
6589661.621
31
0.000
8
0
6
XKITLINE00
62
7
0
LINE
10
564772.840
20
6589759.422
30
0.000
11
564772.840
21
6589759.469
31
0.000
8
0
6
XKITLINE00
62
5
0
LINE
10
564772.746
20
6589759.305
30
0.000
11
564772.746
21
6589759.289
31
0.000
8
0
6
XKITLINE00
62
5
0
LINE
10
564772.535
20
6589759.469
30
0.000
11
564772.535
21
6589759.410
31
0.000
8
0
6
XKITLINE00
62
5
0
LINE
10
564772.746
20
6589759.398
30
0.000
11
564772.746
21
6589759.363
31
0.000
8
0
6
XKITLINE00
62
5
0
LINE
10
564772.746
20
6589759.398
30
0.000
11
564772.754
21
6589759.398
31
0.000
8
0
6
XKITLINE00
62
5
0
LINE
10
564772.746
20
6589759.328
30
0.000
11
564772.746
21
6589759.305
31
0.000
8
0
6
XKITLINE00
62
5
0
LINE
10
564772.535
20
6589759.469
30
0.000
11
564772.543
21
6589759.469
31
0.000
8
0
6
XKITLINE00
62
5
0
LINE
10
564772.746
20
6589759.469
30
0.000
11
564772.754
21
6589759.469
31
0.000
8
0
6
XKITLINE00
62
5
0
LINE
10
564772.746
20
6589759.469
30
0.000
11
564772.746
21
6589759.422
31
0.000
8
0
6
XKITLINE00
62
5
0
LINE
10
564772.840
20
6589759.535
30
0.000
11
564772.840
21
6589759.512
31
0.000
8
0
6
XKITLINE00
62
5
0
LINE
10
564772.746
20
6589759.484
30
0.000
11
564772.746
21
6589759.469
31
0.000
8
0
6
XKITLINE00
62
5
0
LINE
10
564772.840
20
6589759.469
30
0.000
11
564772.848
21
6589759.469
31
0.000
8
0
6
XKITLINE00
62
5
0
LINE
10
564772.746
20
6589759.535
30
0.000
11
564772.746
21
6589759.508
31
0.000
8
0
6
XKITLINE00
62
5
0
LINE
10
564772.641
20
6589759.469
30
0.000
11
564772.648
21
6589759.469
31
0.000
8
0
6
XKITLINE00
62
5
0
LINE
10
564772.641
20
6589759.469
30
0.000
11
564772.641
21
6589759.410
31
0.000
8
0
6
XKITLINE00
62
5
0
LINE
10
564772.840
20
6589759.488
30
0.000
11
564772.840
21
6589759.469
31
0.000
8
0
6
XKITLINE00
62
5
0
LINE
10
564772.535
20
6589759.535
30
0.000
11
564772.535
21
6589759.508
31
0.000
8
0
6
XKITLINE00
62
5
0
LINE
10
564772.746
20
6589759.422
30
0.000
11
564772.746
21
6589759.398
31
0.000
8
0
6
XKITLINE00
62
5
0
LINE
10
564772.535
20
6589759.484
30
0.000
11
564772.535
21
6589759.469
31
0.000
8
0
6
XKITLINE00
62
5
0
LINE
10
564772.641
20
6589759.484
30
0.000
11
564772.641
21
6589759.469
31
0.000
8
0
6
XKITLINE00
62
5
0
LINE
10
564772.641
20
6589759.535
30
0.000
11
564772.641
21
6589759.508
31
0.000
8
0
6
XKITLINE00
62
5
0
LINE
10
564772.641
20
6589759.410
30
0.000
11
564772.641
21
6589759.380
31
0.000
8
0
6
XKITLINE00
62
5
0
LINE
10
564772.641
20
6589759.364
30
0.000
11
564772.641
21
6589759.334
31
0.000
8
0
6
XKITLINE00
62
5
0
LINE
10
564772.641
20
6589759.334
30
0.000
11
564772.641
21
6589759.304
31
0.000
8
0
6
XKITLINE00
62
5
0
LINE
10
564772.641
20
6589759.288
30
0.000
11
564772.641
21
6589759.258
31
0.000
8
0
6
XKITLINE00
62
5
0
LINE
10
564772.746
20
6589759.328
30
0.000
11
564772.746
21
6589759.342
31
0.000
8
0
6
XKITLINE00
62
5
0
LINE
10
564772.746
20
6589759.349
30
0.000
11
564772.746
21
6589759.363
31
0.000
8
0
6
XKITLINE00
62
5
0
LINE
10
564772.535
20
6589759.410
30
0.000
11
564772.535
21
6589759.380
31
0.000
8
0
6
XKITLINE00
62
5
0
LINE
10
564772.535
20
6589759.364
30
0.000
11
564772.535
21
6589759.334
31
0.000
8
0
6
XKITLINE00
62
5
0
LINE
10
564772.535
20
6589759.334
30
0.000
11
564772.535
21
6589759.304
31
0.000
8
0
6
XKITLINE00
62
5
0
LINE
10
564772.535
20
6589759.288
30
0.000
11
564772.535
21
6589759.258
31
0.000
8
0
6
XKITLINE00
62
5
0
LINE
10
564772.535
20
6589759.534
30
0.000
11
564772.641
21
6589759.534
31
0.000
8
0
6
XKITLINE00
62
5
0
LINE
10
564772.535
20
6589759.537
30
0.000
11
564772.641
21
6589759.537
31
0.000
8
0
6
XKITLINE00
62
5
0
LINE
10
564772.746
20
6589759.534
30
0.000
11
564772.840
21
6589759.534
31
0.000
8
0
6
XKITLINE00
62
5
0
LINE
10
564772.746
20
6589759.537
30
0.000
11
564772.840
21
6589759.537
31
0.000
8
0
6
XKITLINE00
62
5
0
LINE
10
564772.641
20
6589759.534
30
0.000
11
564772.746
21
6589759.534
31
0.000
8
0
6
XKITLINE00
62
5
0
LINE
10
564772.641
20
6589759.537
30
0.000
11
564772.746
21
6589759.537
31
0.000
8
0
6
XKITLINE00
62
5
0
LINE
10
564772.746
20
6589759.066
30
0.000
11
564772.746
21
6589759.042
31
0.000
8
0
6
XKITLINE00
62
7
0
LINE
10
564772.746
20
6589759.030
30
0.000
11
564772.746
21
6589759.006
31
0.000
8
0
6
XKITLINE00
62
7
0
LINE
10
564772.746
20
6589759.006
30
0.000
11
564772.746
21
6589758.982
31
0.000
8
0
6
XKITLINE00
62
7
0
LINE
10
564772.746
20
6589758.970
30
0.000
11
564772.746
21
6589758.945
31
0.000
8
0
6
XKITLINE00
62
7
0
LINE
10
564772.832
20
6589759.066
30
0.000
11
564772.832
21
6589759.042
31
0.000
8
0
6
XKITLINE00
62
7
0
LINE
10
564772.832
20
6589759.030
30
0.000
11
564772.832
21
6589759.006
31
0.000
8
0
6
XKITLINE00
62
7
0
LINE
10
564772.832
20
6589759.006
30
0.000
11
564772.832
21
6589758.982
31
0.000
8
0
6
XKITLINE00
62
7
0
LINE
10
564772.832
20
6589758.970
30
0.000
11
564772.832
21
6589758.945
31
0.000
8
0
6
XKITLINE00
62
7
0
LINE
10
564772.918
20
6589759.066
30
0.000
11
564772.918
21
6589759.042
31
0.000
8
0
6
XKITLINE00
62
7
0
LINE
10
564772.918
20
6589759.030
30
0.000
11
564772.918
21
6589759.006
31
0.000
8
0
6
XKITLINE00
62
7
0
LINE
10
564772.918
20
6589759.006
30
0.000
11
564772.918
21
6589758.982
31
0.000
8
0
6
XKITLINE00
62
7
0
LINE
10
564772.918
20
6589758.970
30
0.000
11
564772.918
21
6589758.945
31
0.000
8
0
6
XKITLINE00
62
7
0
LINE
10
564773.004
20
6589759.066
30
0.000
11
564773.004
21
6589759.042
31
0.000
8
0
6
XKITLINE00
62
7
0
LINE
10
564773.004
20
6589759.030
30
0.000
11
564773.004
21
6589759.006
31
0.000
8
0
6
XKITLINE00
62
7
0
LINE
10
564773.004
20
6589759.006
30
0.000
11
564773.004
21
6589758.982
31
0.000
8
0
6
XKITLINE00
62
7
0
LINE
10
564773.004
20
6589758.970
30
0.000
11
564773.004
21
6589758.945
31
0.000
8
0
6
XKITLINE00
62
7
0
LINE
10
564772.574
20
6589759.066
30
0.000
11
564772.574
21
6589759.042
31
0.000
8
0
6
XKITLINE00
62
7
0
LINE
10
564772.574
20
6589759.030
30
0.000
11
564772.574
21
6589759.006
31
0.000
8
0
6
XKITLINE00
62
7
0
LINE
10
564772.574
20
6589759.006
30
0.000
11
564772.574
21
6589758.982
31
0.000
8
0
6
XKITLINE00
62
7
0
LINE
10
564772.574
20
6589758.970
30
0.000
11
564772.574
21
6589758.945
31
0.000
8
0
6
XKITLINE00
62
7
0
LINE
10
564772.660
20
6589759.066
30
0.000
11
564772.660
21
6589759.042
31
0.000
8
0
6
XKITLINE00
62
7
0
LINE
10
564772.660
20
6589759.030
30
0.000
11
564772.660
21
6589759.006
31
0.000
8
0
6
XKITLINE00
62
7
0
LINE
10
564772.660
20
6589759.006
30
0.000
11
564772.660
21
6589758.982
31
0.000
8
0
6
XKITLINE00
62
7
0
LINE
10
564772.660
20
6589758.970
30
0.000
11
564772.660
21
6589758.945
31
0.000
8
0
6
XKITLINE00
62
7
0
LINE
10
564772.488
20
6589759.066
30
0.000
11
564772.488
21
6589759.042
31
0.000
8
0
6
XKITLINE00
62
7
0
LINE
10
564772.488
20
6589759.030
30
0.000
11
564772.488
21
6589759.006
31
0.000
8
0
6
XKITLINE00
62
7
0
LINE
10
564772.488
20
6589759.006
30
0.000
11
564772.488
21
6589758.982
31
0.000
8
0
6
XKITLINE00
62
7
0
LINE
10
564772.488
20
6589758.970
30
0.000
11
564772.488
21
6589758.945
31
0.000
8
0
6
XKITLINE00
62
7
0
LINE
10
564952.844
20
6589681.426
30
0.000
11
564952.844
21
6589681.402
31
0.000
8
0
6
XKITLINE00
62
7
0
LINE
10
564952.844
20
6589681.389
30
0.000
11
564952.844
21
6589681.365
31
0.000
8
0
6
XKITLINE00
62
7
0
LINE
10
564952.844
20
6589681.365
30
0.000
11
564952.844
21
6589681.341
31
0.000
8
0
6
XKITLINE00
62
7
0
LINE
10
564952.844
20
6589681.329
30
0.000
11
564952.844
21
6589681.305
31
0.000
8
0
6
XKITLINE00
62
7
0
LINE
10
564953.016
20
6589681.426
30
0.000
11
564953.016
21
6589681.402
31
0.000
8
0
6
XKITLINE00
62
7
0
LINE
10
564953.016
20
6589681.389
30
0.000
11
564953.016
21
6589681.365
31
0.000
8
0
6
XKITLINE00
62
7
0
LINE
10
564953.016
20
6589681.365
30
0.000
11
564953.016
21
6589681.341
31
0.000
8
0
6
XKITLINE00
62
7
0
LINE
10
564953.016
20
6589681.329
30
0.000
11
564953.016
21
6589681.305
31
0.000
8
0
6
XKITLINE00
62
7
0
LINE
10
564952.930
20
6589681.426
30
0.000
11
564952.930
21
6589681.402
31
0.000
8
0
6
XKITLINE00
62
7
0
LINE
10
564952.930
20
6589681.389
30
0.000
11
564952.930
21
6589681.365
31
0.000
8
0
6
XKITLINE00
62
7
0
LINE
10
564952.930
20
6589681.365
30
0.000
11
564952.930
21
6589681.341
31
0.000
8
0
6
XKITLINE00
62
7
0
LINE
10
564952.930
20
6589681.329
30
0.000
11
564952.930
21
6589681.305
31
0.000
8
0
6
XKITLINE00
62
7
0
LINE
10
564772.223
20
6589753.219
30
0.000
11
564772.453
21
6589757.055
31
0.000
8
0
6
XKITLINE01
62
3
0
LINE
10
564772.941
20
6589753.594
30
0.000
11
564772.711
21
6589757.176
31
0.000
8
0
6
XKITLINE01
62
3
0
LINE
10
564774.500
20
6589752.625
30
0.000
11
564772.941
21
6589753.594
31
0.000
8
0
6
XKITLINE01
62
3
0
LINE
10
564795.387
20
6589746.676
30
0.000
11
564782.672
21
6589750.520
31
0.000
8
0
6
XKITLINE01
62
3
0
LINE
10
564774.219
20
6589751.969
30
0.000
11
564772.223
21
6589753.219
31
0.000
8
0
6
XKITLINE01
62
3
0
LINE
10
564789.967
20
6589845.959
30
0.000
11
564789.281
21
6589843.648
31
0.000
8
0
6
XKITLINE01
62
3
0
LINE
10
564863.148
20
6589725.820
30
0.000
11
564849.910
21
6589729.711
31
0.000
8
0
6
XKITLINE01
62
3
0
LINE
10
564833.762
20
6589734.281
30
0.000
11
564825.449
21
6589736.809
31
0.000
8
0
6
XKITLINE01
62
3
0
LINE
10
564849.910
20
6589729.711
30
0.000
11
564843.852
21
6589731.531
31
0.000
8
0
6
XKITLINE01
62
3
0
LINE
10
564772.730
20
6589758.352
30
0.000
11
564772.746
21
6589758.945
31
0.000
8
0
6
XKITLINE01
62
3
0
LINE
10
564772.316
20
6589757.957
30
0.000
11
564772.730
21
6589758.352
31
0.000
8
0
6
XKITLINE01
62
3
0
LINE
10
564772.711
20
6589757.176
30
0.000
11
564772.746
21
6589757.844
31
0.000
8
0
6
XKITLINE01
62
3
0
LINE
10
564772.746
20
6589757.844
30
0.000
11
564772.832
21
6589758.945
31
0.000
8
0
6
XKITLINE01
62
3
0
LINE
10
564772.453
20
6589757.055
30
0.000
11
564772.836
21
6589757.777
31
0.000
8
0
6
XKITLINE01
62
3
0
LINE
10
564772.836
20
6589757.777
30
0.000
11
564772.918
21
6589758.945
31
0.000
8
0
6
XKITLINE01
62
3
0
LINE
10
564771.801
20
6589757.715
30
0.000
11
564772.316
21
6589757.957
31
0.000
8
0
6
XKITLINE01
62
3
0
LINE
10
564654.336
20
6589787.219
30
0.000
11
564646.805
21
6589789.809
31
0.000
8
0
6
XKITLINE01
62
3
0
LINE
10
564666.500
20
6589782.512
30
0.000
11
564654.336
21
6589787.219
31
0.000
8
0
6
XKITLINE01
62
3
0
LINE
10
564673.691
20
6589780.199
30
0.000
11
564666.500
21
6589782.512
31
0.000
8
0
6
XKITLINE01
62
3
0
LINE
10
564713.531
20
6589767.199
30
0.000
11
564705.910
21
6589769.750
31
0.000
8
0
6
XKITLINE01
62
3
0
LINE
10
564684.750
20
6589776.648
30
0.000
11
564673.691
21
6589780.199
31
0.000
8
0
6
XKITLINE01
62
3
0
LINE
10
564697.621
20
6589772.512
30
0.000
11
564684.750
21
6589776.648
31
0.000
8
0
6
XKITLINE01
62
3
0
LINE
10
564705.910
20
6589769.750
30
0.000
11
564697.621
21
6589772.512
31
0.000
8
0
6
XKITLINE01
62
3
0
LINE
10
564723.691
20
6589763.828
30
0.000
11
564713.531
21
6589767.199
31
0.000
8
0
6
XKITLINE01
62
3
0
LINE
10
564738.762
20
6589759.020
30
0.000
11
564723.691
21
6589763.828
31
0.000
8
0
6
XKITLINE01
62
3
0
LINE
10
564753.910
20
6589754.590
30
0.000
11
564738.762
21
6589759.020
31
0.000
8
0
6
XKITLINE01
62
3
0
LINE
10
564923.449
20
6589707.809
30
0.000
11
564915.230
21
6589710.328
31
0.000
8
0
6
XKITLINE01
62
3
0
LINE
10
564762.289
20
6589752.102
30
0.000
11
564757.160
21
6589753.738
31
0.000
8
0
6
XKITLINE01
62
3
0
LINE
10
564767.012
20
6589750.820
30
0.000
11
564762.289
21
6589752.102
31
0.000
8
0
6
XKITLINE01
62
3
0
LINE
10
564773.004
20
6589758.945
30
0.000
11
564772.938
21
6589757.703
31
0.000
8
0
6
XKITLINE01
62
3
0
LINE
10
564757.160
20
6589753.738
30
0.000
11
564753.910
21
6589754.590
31
0.000
8
0
6
XKITLINE01
62
3
0
LINE
10
564930.020
20
6589707.609
30
0.000
11
564928.828
21
6589707.898
31
0.000
8
0
6
XKITLINE01
62
3
0
LINE
10
564928.828
20
6589707.898
30
0.000
11
564928.391
21
6589706.531
31
0.000
8
0
6
XKITLINE01
62
3
0
LINE
10
564928.391
20
6589706.531
30
0.000
11
564923.449
21
6589707.809
31
0.000
8
0
6
XKITLINE01
62
3
0
LINE
10
564882.930
20
6589719.441
30
0.000
11
564871.578
21
6589723.320
31
0.000
8
0
6
XKITLINE01
62
3
0
LINE
10
564888.820
20
6589717.672
30
0.000
11
564882.930
21
6589719.441
31
0.000
8
0
6
XKITLINE01
62
3
0
LINE
10
564783.820
20
6589820.488
30
0.000
11
564781.160
21
6589808.328
31
0.000
8
0
6
XKITLINE01
62
3
0
LINE
10
564781.160
20
6589808.328
30
0.000
11
564779.801
21
6589802.609
31
0.000
8
0
6
XKITLINE01
62
3
0
LINE
10
564779.801
20
6589802.609
30
0.000
11
564779.102
21
6589799.691
31
0.000
8
0
6
XKITLINE01
62
3
0
LINE
10
564772.938
20
6589757.703
30
0.000
11
564771.852
21
6589754.070
31
0.000
8
0
6
XKITLINE01
62
3
0
LINE
10
564769.078
20
6589750.270
30
0.000
11
564767.012
21
6589750.820
31
0.000
8
0
6
XKITLINE01
62
3
0
LINE
10
564770.238
20
6589750.570
30
0.000
11
564769.078
21
6589750.270
31
0.000
8
0
6
XKITLINE01
62
3
0
LINE
10
564770.641
20
6589751.359
30
0.000
11
564770.238
21
6589750.570
31
0.000
8
0
6
XKITLINE01
62
3
0
LINE
10
564771.852
20
6589754.070
30
0.000
11
564770.641
21
6589751.359
31
0.000
8
0
6
XKITLINE01
62
3
0
LINE
10
564779.102
20
6589799.691
30
0.000
11
564778.250
21
6589796.172
31
0.000
8
0
6
XKITLINE01
62
3
0
LINE
10
564844.152
20
6589732.180
30
0.000
11
564839.520
21
6589733.223
31
0.000
8
0
6
XKITLINE01
62
3
0
LINE
10
564804.715
20
6589743.617
30
0.000
11
564795.387
21
6589746.676
31
0.000
8
0
6
XKITLINE01
62
3
0
LINE
10
564816.082
20
6589740.391
30
0.000
11
564804.715
21
6589743.617
31
0.000
8
0
6
XKITLINE01
62
3
0
LINE
10
564825.656
20
6589737.477
30
0.000
11
564816.082
21
6589740.391
31
0.000
8
0
6
XKITLINE01
62
3
0
LINE
10
564833.969
20
6589734.945
30
0.000
11
564825.656
21
6589737.477
31
0.000
8
0
6
XKITLINE01
62
3
0
LINE
10
564839.520
20
6589733.223
30
0.000
11
564833.969
21
6589734.945
31
0.000
8
0
6
XKITLINE01
62
3
0
LINE
10
564846.379
20
6589735.488
30
0.000
11
564844.152
21
6589732.180
31
0.000
8
0
6
XKITLINE01
62
3
0
LINE
10
564778.250
20
6589796.172
30
0.000
11
564776.359
21
6589787.691
31
0.000
8
0
6
XKITLINE01
62
3
0
LINE
10
564776.359
20
6589787.691
30
0.000
11
564775.609
21
6589783.719
31
0.000
8
0
6
XKITLINE01
62
3
0
LINE
10
564773.648
20
6589774.871
30
0.000
11
564771.531
21
6589764.449
31
0.000
8
0
6
XKITLINE01
62
3
0
LINE
10
564843.852
20
6589731.531
30
0.000
11
564839.340
21
6589732.539
31
0.000
8
0
6
XKITLINE01
62
3
0
LINE
10
564839.340
20
6589732.539
30
0.000
11
564833.762
21
6589734.281
31
0.000
8
0
6
XKITLINE01
62
3
0
LINE
10
564825.449
20
6589736.809
30
0.000
11
564815.891
21
6589739.719
31
0.000
8
0
6
XKITLINE01
62
3
0
LINE
10
564815.891
20
6589739.719
30
0.000
11
564804.512
21
6589742.949
31
0.000
8
0
6
XKITLINE01
62
3
0
LINE
10
564804.512
20
6589742.949
30
0.000
11
564795.180
21
6589746.012
31
0.000
8
0
6
XKITLINE01
62
3
0
LINE
10
564795.180
20
6589746.012
30
0.000
11
564782.480
21
6589749.840
31
0.000
8
0
6
XKITLINE01
62
3
0
LINE
10
564771.531
20
6589764.449
30
0.000
11
564771.262
21
6589762.219
31
0.000
8
0
6
XKITLINE01
62
3
0
LINE
10
564871.578
20
6589723.320
30
0.000
11
564863.148
21
6589725.820
31
0.000
8
0
6
XKITLINE01
62
3
0
LINE
10
564771.262
20
6589762.219
30
0.000
11
564770.801
21
6589758.465
31
0.000
8
0
6
XKITLINE01
62
3
0
LINE
10
564771.262
20
6589757.480
30
0.000
11
564771.801
21
6589757.715
31
0.000
8
0
6
XKITLINE01
62
3
0
LINE
10
564770.801
20
6589758.465
30
0.000
11
564771.262
21
6589757.480
31
0.000
8
0
6
XKITLINE01
62
3
0
LINE
10
564900.449
20
6589714.441
30
0.000
11
564888.820
21
6589717.672
31
0.000
8
0
6
XKITLINE01
62
3
0
LINE
10
564782.480
20
6589749.840
30
0.000
11
564774.219
21
6589751.969
31
0.000
8
0
6
XKITLINE01
62
3
0
LINE
10
564782.672
20
6589750.520
30
0.000
11
564774.500
21
6589752.625
31
0.000
8
0
6
XKITLINE01
62
3
0
LINE
10
564775.609
20
6589783.719
30
0.000
11
564773.648
21
6589774.871
31
0.000
8
0
6
XKITLINE01
62
3
0
LINE
10
564915.230
20
6589710.328
30
0.000
11
564912.320
21
6589711.141
31
0.000
8
0
6
XKITLINE01
62
3
0
LINE
10
564912.320
20
6589711.141
30
0.000
11
564910.398
21
6589711.672
31
0.000
8
0
6
XKITLINE01
62
3
0
LINE
10
564910.398
20
6589711.672
30
0.000
11
564900.449
21
6589714.441
31
0.000
8
0
6
XKITLINE01
62
3
0
LINE
10
564786.680
20
6589834.262
30
0.000
11
564783.820
21
6589820.488
31
0.000
8
0
6
XKITLINE01
62
3
0
LINE
10
564789.281
20
6589843.648
30
0.000
11
564786.680
21
6589834.262
31
0.000
8
0
6
XKITLINE01
62
3
0
LINE
10
564771.461
20
6589762.199
30
0.000
11
564771.000
21
6589758.500
31
0.000
8
0
6
XKITLINE01
62
3
0
LINE
10
564938.898
20
6589703.641
30
0.000
11
564930.395
21
6589705.898
31
0.000
8
0
6
XKITLINE01
62
3
0
LINE
10
564930.395
20
6589705.898
30
0.000
11
564928.629
21
6589706.645
31
0.000
8
0
6
XKITLINE01
62
3
0
LINE
10
564771.000
20
6589758.500
30
0.000
11
564771.352
21
6589757.738
31
0.000
8
0
6
XKITLINE01
62
3
0
LINE
10
564773.031
20
6589769.266
30
0.000
11
564771.863
21
6589764.477
31
0.000
8
0
6
XKITLINE01
62
3
0
LINE
10
564952.762
20
6589681.227
30
0.000
11
564952.844
21
6589681.227
31
0.000
8
0
6
XKITLINE01
62
3
0
LINE
10
564928.629
20
6589706.645
30
0.000
11
564928.965
21
6589707.691
31
0.000
8
0
6
XKITLINE01
62
3
0
LINE
10
564928.965
20
6589707.691
30
0.000
11
564930.020
21
6589707.609
31
0.000
8
0
6
XKITLINE01
62
3
0
LINE
10
564952.844
20
6589681.227
30
0.000
11
564952.844
21
6589681.305
31
0.000
8
0
6
XKITLINE01
62
3
0
LINE
10
564952.879
20
6589685.109
30
0.000
11
564952.762
21
6589681.227
31
0.000
8
0
6
XKITLINE01
62
3
0
LINE
10
564953.891
20
6589693.680
30
0.000
11
564952.879
21
6589685.109
31
0.000
8
0
6
XKITLINE01
62
3
0
LINE
10
564953.480
20
6589697.578
30
0.000
11
564953.891
21
6589693.680
31
0.000
8
0
6
XKITLINE01
62
3
0
LINE
10
564954.289
20
6589699.879
30
0.000
11
564953.480
21
6589697.578
31
0.000
8
0
6
XKITLINE01
62
3
0
LINE
10
564954.351
20
6589699.963
30
0.000
11
564954.289
21
6589699.879
31
0.000
8
0
6
XKITLINE01
62
3
0
LINE
10
564772.574
20
6589758.945
30
0.000
11
564773.074
21
6589757.754
31
0.000
8
0
6
XKITLINE01
62
3
0
LINE
10
564771.160
20
6589757.219
30
0.000
11
564772.594
21
6589757.879
31
0.000
8
0
6
XKITLINE01
62
3
0
LINE
10
564770.590
20
6589758.430
30
0.000
11
564771.160
21
6589757.219
31
0.000
8
0
6
XKITLINE01
62
3
0
LINE
10
564771.059
20
6589762.262
30
0.000
11
564770.590
21
6589758.430
31
0.000
8
0
6
XKITLINE01
62
3
0
LINE
10
564771.340
20
6589764.488
30
0.000
11
564771.059
21
6589762.262
31
0.000
8
0
6
XKITLINE01
62
3
0
LINE
10
564773.449
20
6589774.871
30
0.000
11
564771.340
21
6589764.488
31
0.000
8
0
6
XKITLINE01
62
3
0
LINE
10
564772.594
20
6589757.879
30
0.000
11
564772.660
21
6589758.945
31
0.000
8
0
6
XKITLINE01
62
3
0
LINE
10
564773.074
20
6589757.754
30
0.000
11
564773.078
21
6589757.020
31
0.000
8
0
6
XKITLINE01
62
3
0
LINE
10
564773.078
20
6589757.020
30
0.000
11
564773.488
21
6589757.109
31
0.000
8
0
6
XKITLINE01
62
3
0
LINE
10
564775.422
20
6589783.770
30
0.000
11
564773.449
21
6589774.871
31
0.000
8
0
6
XKITLINE01
62
3
0
LINE
10
564771.980
20
6589758.016
30
0.000
11
564772.488
21
6589758.945
31
0.000
8
0
6
XKITLINE01
62
3
0
LINE
10
564771.352
20
6589757.738
30
0.000
11
564771.980
21
6589758.016
31
0.000
8
0
6
XKITLINE01
62
3
0
LINE
10
564771.863
20
6589764.477
30
0.000
11
564771.461
21
6589762.199
31
0.000
8
0
6
XKITLINE01
62
3
0
LINE
10
564954.351
20
6589700.174
30
0.000
11
564954.012
21
6589700.262
31
0.000
8
0
6
XKITLINE01
62
3
0
LINE
10
564954.012
20
6589700.262
30
0.000
11
564949.398
21
6589701.352
31
0.000
8
0
6
XKITLINE01
62
3
0
LINE
10
564949.398
20
6589701.352
30
0.000
11
564938.898
21
6589703.641
31
0.000
8
0
6
XKITLINE01
62
3
0
LINE
10
564773.488
20
6589757.109
30
0.000
11
564776.215
21
6589757.188
31
0.000
8
0
6
XKITLINE01
62
3
0
LINE
10
564773.801
20
6589784.340
30
0.000
11
564775.422
21
6589783.770
31
0.000
8
0
6
XKITLINE01
62
3
0
LINE
10
564767.551
20
6589786.531
30
0.000
11
564773.801
21
6589784.340
31
0.000
8
0
6
XKITLINE01
62
3
0
LINE
10
564767.113
20
6589786.828
30
0.000
11
564767.551
21
6589786.531
31
0.000
8
0
6
XKITLINE01
62
3
0
LINE
10
564949.711
20
6589672.301
30
0.000
11
564946.328
21
6589671.211
31
0.000
8
0
6
XKITLINE01
62
3
0
LINE
10
564952.930
20
6589681.305
30
0.000
11
564952.930
21
6589681.215
31
0.000
8
0
6
XKITLINE01
62
3
0
LINE
10
564952.879
20
6589679.801
30
0.000
11
564952.270
21
6589674.211
31
0.000
8
0
6
XKITLINE01
62
3
0
LINE
10
564952.270
20
6589674.211
30
0.000
11
564949.711
21
6589672.301
31
0.000
8
0
6
XKITLINE01
62
3
0
LINE
10
564946.328
20
6589671.211
30
0.000
11
564944.738
21
6589666.141
31
0.000
8
0
6
XKITLINE01
62
3
0
LINE
10
564944.738
20
6589666.141
30
0.000
11
564941.359
21
6589659.262
31
0.000
8
0
6
XKITLINE01
62
3
0
LINE
10
564941.359
20
6589659.262
30
0.000
11
564940.449
21
6589655.801
31
0.000
8
0
6
XKITLINE01
62
3
0
LINE
10
564940.449
20
6589655.801
30
0.000
11
564944.551
21
6589653.820
31
0.000
8
0
6
XKITLINE01
62
3
0
LINE
10
564944.551
20
6589653.820
30
0.000
11
564951.551
21
6589652.328
31
0.000
8
0
6
XKITLINE01
62
3
0
LINE
10
564953.031
20
6589679.801
30
0.000
11
564954.351
21
6589678.599
31
0.000
8
0
6
XKITLINE01
62
3
0
LINE
10
564951.551
20
6589652.328
30
0.000
11
564953.102
21
6589652.410
31
0.000
8
0
6
XKITLINE01
62
3
0
LINE
10
564953.102
20
6589652.410
30
0.000
11
564954.351
21
6589652.593
31
0.000
8
0
6
XKITLINE01
62
3
0
LINE
10
564953.016
20
6589681.305
30
0.000
11
564953.016
21
6589681.223
31
0.000
8
0
6
XKITLINE01
62
3
0
LINE
10
564952.930
20
6589681.215
30
0.000
11
564952.879
21
6589679.801
31
0.000
8
0
6
XKITLINE01
62
3
0
LINE
10
564953.016
20
6589681.223
30
0.000
11
564953.031
21
6589679.801
31
0.000
8
0
6
XKITLINE01
62
3
0
LINE
10
564839.328
20
6589707.172
30
0.000
11
564840.262
21
6589707.059
31
0.000
8
0
6
XKITLINE01
62
5
0
LINE
10
564840.691
20
6589712.461
30
0.000
11
564839.328
21
6589707.172
31
0.000
8
0
6
XKITLINE01
62
5
0
LINE
10
564823.242
20
6589717.000
30
0.000
11
564840.691
21
6589712.461
31
0.000
8
0
6
XKITLINE01
62
5
0
LINE
10
564822.770
20
6589715.473
30
0.000
11
564823.242
21
6589717.000
31
0.000
8
0
6
XKITLINE01
62
5
0
LINE
10
564954.102
20
6589700.648
30
0.000
11
564949.480
21
6589701.738
31
0.000
8
0
6
XKITLINE01
62
3
0
LINE
10
564949.480
20
6589701.738
30
0.000
11
564939.000
21
6589704.031
31
0.000
8
0
6
XKITLINE01
62
3
0
LINE
10
564939.000
20
6589704.031
30
0.000
11
564930.500
21
6589706.289
31
0.000
8
0
6
XKITLINE01
62
3
0
LINE
10
564929.129
20
6589706.871
30
0.000
11
564929.250
21
6589707.273
31
0.000
8
0
6
XKITLINE01
62
3
0
LINE
10
564929.250
20
6589707.273
30
0.000
11
564930.020
21
6589707.609
31
0.000
8
0
6
XKITLINE01
62
3
0
LINE
10
564930.500
20
6589706.289
30
0.000
11
564929.129
21
6589706.871
31
0.000
8
0
6
XKITLINE01
62
3
0
LINE
10
564954.351
20
6589700.913
30
0.000
11
564954.102
21
6589700.648
31
0.000
8
0
6
XKITLINE01
62
3
0
LINE
10
564875.676
20
6589660.023
30
0.000
11
564878.434
21
6589661.621
31
0.000
8
0
6
XKITLINE01
62
3
0
LINE
10
564930.020
20
6589707.609
30
0.000
11
564933.113
21
6589711.531
31
0.000
8
0
6
XKITLINE01
62
3
0
LINE
10
564930.020
20
6589707.609
30
0.000
11
564931.316
21
6589712.043
31
0.000
8
0
6
XKITLINE01
62
3
0
LINE
10
564787.152
20
6589698.582
30
0.000
11
564784.629
21
6589698.605
31
0.000
8
0
6
XKITLINE01
62
3
0
LINE
10
564772.746
20
6589759.156
30
0.000
11
564772.723
21
6589759.156
31
0.000
8
0
6
XKITLINE01
62
3
0
LINE
10
564805.465
20
6589782.301
30
0.000
11
564806.496
21
6589783.828
31
0.000
8
0
6
XKITLINE01
62
3
0
LINE
10
564774.059
20
6589817.336
30
0.000
11
564772.535
21
6589817.203
31
0.000
8
0
6
XKITLINE01
62
3
0
LINE
10
564709.926
20
6589799.465
30
0.000
11
564709.578
21
6589800.172
31
0.000
8
0
6
XKITLINE01
62
3
0
LINE
10
564772.688
20
6589759.156
30
0.000
11
564772.672
21
6589759.156
31
0.000
8
0
6
XKITLINE01
62
3
0
LINE
10
564708.844
20
6589801.957
30
0.000
11
564707.176
21
6589814.652
31
0.000
8
0
6
XKITLINE01
62
7
0
LINE
10
564878.434
20
6589661.621
30
0.000
11
564875.176
21
6589663.004
31
0.000
8
0
6
XKITLINE01
62
7
0
LINE
10
564772.535
20
6589817.203
30
0.000
11
564760.633
21
6589812.195
31
0.000
8
0
6
XKITLINE01
62
7
0
LINE
10
564808.352
20
6589784.340
30
0.000
11
564818.039
21
6589789.645
31
0.000
8
0
6
XKITLINE01
62
7
0
LINE
10
564709.578
20
6589800.172
30
0.000
11
564708.844
21
6589801.957
31
0.000
8
0
6
XKITLINE01
62
7
0
LINE
10
564806.496
20
6589783.828
30
0.000
11
564808.352
21
6589784.340
31
0.000
8
0
6
XKITLINE01
62
7
0
LINE
10
564772.535
20
6589817.203
30
0.000
11
564772.250
21
6589814.898
31
0.000
8
0
6
XKITLINE01
62
7
0
LINE
10
564832.863
20
6589678.410
30
0.000
11
564787.152
21
6589698.582
31
0.000
8
0
6
XKITLINE00
62
3
0
LINE
10
564832.863
20
6589678.410
30
0.000
11
564875.676
21
6589660.023
31
0.000
8
0
6
XKITLINE00
62
3
0
LINE
10
564936.785
20
6589635.891
30
0.000
11
564935.946
21
6589632.959
31
0.000
8
0
6
XKITLINE00
62
3
0
LINE
10
564840.262
20
6589707.059
30
0.000
11
564832.863
21
6589678.410
31
0.000
8
0
6
XKITLINE00
62
3
0
LINE
10
564875.676
20
6589660.023
30
0.000
11
564902.105
21
6589649.734
31
0.000
8
0
6
XKITLINE00
62
3
0
LINE
10
564902.105
20
6589649.734
30
0.000
11
564936.785
21
6589635.891
31
0.000
8
0
6
XKITLINE00
62
3
0
LINE
10
564846.379
20
6589735.488
30
0.000
11
564840.262
21
6589707.059
31
0.000
8
0
6
XKITLINE00
62
3
0
LINE
10
564767.113
20
6589786.828
30
0.000
11
564740.012
21
6589792.816
31
0.000
8
0
6
XKITLINE00
62
3
0
LINE
10
564740.012
20
6589792.816
30
0.000
11
564709.926
21
6589799.465
31
0.000
8
0
6
XKITLINE00
62
3
0
LINE
10
564767.113
20
6589786.828
30
0.000
11
564805.465
21
6589782.301
31
0.000
8
0
6
XKITLINE00
62
3
0
LINE
10
564774.059
20
6589817.336
30
0.000
11
564767.113
21
6589786.828
31
0.000
8
0
6
XKITLINE00
62
3
0
LINE
10
564781.291
20
6589845.959
30
0.000
11
564774.059
21
6589817.336
31
0.000
8
0
6
XKITLINE00
62
3
0
LINE
10
564778.449
20
6589796.121
30
0.000
11
564776.559
21
6589787.648
31
0.000
8
0
6
XKITLINE02
62
1
0
LINE
10
564782.430
20
6589749.648
30
0.000
11
564774.141
21
6589751.789
31
0.000
8
0
6
XKITLINE02
62
1
0
LINE
10
564795.109
20
6589745.820
30
0.000
11
564782.430
21
6589749.648
31
0.000
8
0
6
XKITLINE02
62
1
0
LINE
10
564804.449
20
6589742.762
30
0.000
11
564795.109
21
6589745.820
31
0.000
8
0
6
XKITLINE02
62
1
0
LINE
10
564815.828
20
6589739.520
30
0.000
11
564804.449
21
6589742.762
31
0.000
8
0
6
XKITLINE02
62
1
0
LINE
10
564833.699
20
6589734.090
30
0.000
11
564825.391
21
6589736.621
31
0.000
8
0
6
XKITLINE02
62
1
0
LINE
10
564839.289
20
6589732.352
30
0.000
11
564833.699
21
6589734.090
31
0.000
8
0
6
XKITLINE02
62
1
0
LINE
10
564843.801
20
6589731.328
30
0.000
11
564839.289
21
6589732.352
31
0.000
8
0
6
XKITLINE02
62
1
0
LINE
10
564825.391
20
6589736.621
30
0.000
11
564815.828
21
6589739.520
31
0.000
8
0
6
XKITLINE02
62
1
0
LINE
10
564849.859
20
6589729.512
30
0.000
11
564843.801
21
6589731.328
31
0.000
8
0
6
XKITLINE02
62
1
0
LINE
10
564863.102
20
6589725.629
30
0.000
11
564849.859
21
6589729.512
31
0.000
8
0
6
XKITLINE02
62
1
0
LINE
10
564882.871
20
6589719.250
30
0.000
11
564871.520
21
6589723.121
31
0.000
8
0
6
XKITLINE02
62
1
0
LINE
10
564888.762
20
6589717.480
30
0.000
11
564882.871
21
6589719.250
31
0.000
8
0
6
XKITLINE02
62
1
0
LINE
10
564900.629
20
6589714.191
30
0.000
11
564888.762
21
6589717.480
31
0.000
8
0
6
XKITLINE02
62
1
0
LINE
10
564871.520
20
6589723.121
30
0.000
11
564863.102
21
6589725.629
31
0.000
8
0
6
XKITLINE02
62
1
0
LINE
10
564910.340
20
6589711.480
30
0.000
11
564900.629
21
6589714.191
31
0.000
8
0
6
XKITLINE02
62
1
0
LINE
10
564912.270
20
6589710.941
30
0.000
11
564910.340
21
6589711.480
31
0.000
8
0
6
XKITLINE02
62
1
0
LINE
10
564915.172
20
6589710.141
30
0.000
11
564912.270
21
6589710.941
31
0.000
8
0
6
XKITLINE02
62
1
0
LINE
10
564923.391
20
6589707.621
30
0.000
11
564915.172
21
6589710.141
31
0.000
8
0
6
XKITLINE02
62
1
0
LINE
10
564927.941
20
6589706.430
30
0.000
11
564923.391
21
6589707.621
31
0.000
8
0
6
XKITLINE02
62
1
0
LINE
10
564774.141
20
6589751.789
30
0.000
11
564773.020
21
6589752.539
31
0.000
8
0
6
XKITLINE02
62
1
0
LINE
10
564930.352
20
6589705.711
30
0.000
11
564927.941
21
6589706.430
31
0.000
8
0
6
XKITLINE02
62
1
0
LINE
10
564938.852
20
6589703.441
30
0.000
11
564930.352
21
6589705.711
31
0.000
8
0
6
XKITLINE02
62
1
0
LINE
10
564949.355
20
6589701.148
30
0.000
11
564938.852
21
6589703.441
31
0.000
8
0
6
XKITLINE02
62
1
0
LINE
10
564773.922
20
6589761.027
30
0.000
11
564773.309
21
6589760.332
31
0.000
8
0
6
XKITLINE02
62
1
0
LINE
10
564774.250
20
6589757.039
30
0.000
11
564774.344
21
6589757.441
31
0.000
8
0
6
XKITLINE02
62
1
0
LINE
10
564773.781
20
6589755.328
30
0.000
11
564774.250
21
6589757.039
31
0.000
8
0
6
XKITLINE02
62
1
0
LINE
10
564773.020
20
6589752.539
30
0.000
11
564773.781
21
6589755.328
31
0.000
8
0
6
XKITLINE02
62
1
0
LINE
10
564774.891
20
6589759.750
30
0.000
11
564773.922
21
6589761.027
31
0.000
8
0
6
XKITLINE02
62
1
0
LINE
10
564774.344
20
6589757.441
30
0.000
11
564774.891
21
6589759.750
31
0.000
8
0
6
XKITLINE02
62
1
0
LINE
10
564954.351
20
6589699.724
30
0.000
11
564953.969
21
6589700.070
31
0.000
8
0
6
XKITLINE02
62
1
0
LINE
10
564953.969
20
6589700.070
30
0.000
11
564949.355
21
6589701.148
31
0.000
8
0
6
XKITLINE02
62
1
0
LINE
10
564775.809
20
6589783.680
30
0.000
11
564773.852
21
6589774.828
31
0.000
8
0
6
XKITLINE02
62
1
0
LINE
10
564790.182
20
6589845.959
30
0.000
11
564789.480
21
6589843.590
31
0.000
8
0
6
XKITLINE02
62
1
0
LINE
10
564789.480
20
6589843.590
30
0.000
11
564786.879
21
6589834.211
31
0.000
8
0
6
XKITLINE02
62
1
0
LINE
10
564786.879
20
6589834.211
30
0.000
11
564784.012
21
6589820.449
31
0.000
8
0
6
XKITLINE02
62
1
0
LINE
10
564781.359
20
6589808.281
30
0.000
11
564779.988
21
6589802.559
31
0.000
8
0
6
XKITLINE02
62
1
0
LINE
10
564776.559
20
6589787.648
30
0.000
11
564775.809
21
6589783.680
31
0.000
8
0
6
XKITLINE02
62
1
0
LINE
10
564772.980
20
6589761.711
30
0.000
11
564772.910
21
6589760.516
31
0.000
8
0
6
XKITLINE02
62
1
0
LINE
10
564779.988
20
6589802.559
30
0.000
11
564779.289
21
6589799.641
31
0.000
8
0
6
XKITLINE02
62
1
0
LINE
10
564779.289
20
6589799.641
30
0.000
11
564778.449
21
6589796.121
31
0.000
8
0
6
XKITLINE02
62
1
0
LINE
10
564784.012
20
6589820.449
30
0.000
11
564781.359
21
6589808.281
31
0.000
8
0
6
XKITLINE02
62
1
0
LINE
10
564773.852
20
6589774.828
30
0.000
11
564771.730
21
6589764.410
31
0.000
8
0
6
XKITLINE02
62
1
0
LINE
10
564771.730
20
6589764.410
30
0.000
11
564771.680
21
6589762.176
31
0.000
8
0
6
XKITLINE02
62
1
0
LINE
10
564771.680
20
6589762.176
30
0.000
11
564772.980
21
6589761.711
31
0.000
8
0
6
XKITLINE02
62
1
0
LINE
10
564772.754
20
6589759.496
30
0.000
11
564772.762
21
6589759.496
31
0.000
8
0
6
XKITLINE01
62
7
0
LINE
10
564772.762
20
6589759.461
30
0.000
11
564772.762
21
6589759.406
31
0.000
8
0
6
XKITLINE01
62
7
0
LINE
10
564772.762
20
6589759.496
30
0.000
11
564772.762
21
6589759.477
31
0.000
8
0
6
XKITLINE01
62
7
0
LINE
10
564732.449
20
6589745.922
30
0.000
11
564743.879
21
6589742.219
31
0.000
8
0
6
XKITLINE01
62
2
0
LINE
10
564830.354
20
6589632.959
30
0.000
11
564804.430
21
6589639.109
31
0.000
8
0
6
XKITLINE01
62
2
0
LINE
10
564804.430
20
6589639.109
30
0.000
11
564824.980
21
6589715.930
31
0.000
8
0
6
XKITLINE01
62
2
0
LINE
10
564824.980
20
6589715.930
30
0.000
11
564873.762
21
6589703.328
31
0.000
8
0
6
XKITLINE01
62
2
0
LINE
10
564705.461
20
6589672.020
30
0.000
11
564756.480
21
6589655.078
31
0.000
8
0
6
XKITLINE01
62
2
0
LINE
10
564873.762
20
6589703.328
30
0.000
11
564853.032
21
6589632.959
31
0.000
8
0
6
XKITLINE01
62
2
0
LINE
10
564756.480
20
6589655.078
30
0.000
11
564804.430
21
6589639.109
31
0.000
8
0
6
XKITLINE01
62
2
0
LINE
10
564804.430
20
6589639.109
30
0.000
11
564830.354
21
6589632.959
31
0.000
8
0
6
XKITLINE01
62
2
0
LINE
10
564853.032
20
6589632.959
30
0.000
11
564873.762
21
6589703.328
31
0.000
8
0
6
XKITLINE01
62
2
0
LINE
10
564873.762
20
6589703.328
30
0.000
11
564930.609
21
6589688.469
31
0.000
8
0
6
XKITLINE01
62
2
0
LINE
10
564930.609
20
6589688.469
30
0.000
11
564913.017
21
6589632.959
31
0.000
8
0
6
XKITLINE01
62
2
0
LINE
10
564737.961
20
6589843.102
30
0.000
11
564736.078
21
6589834.961
31
0.000
8
0
6
XKITLINE01
62
2
0
LINE
10
564674.441
20
6589782.559
30
0.000
11
564689.297
21
6589845.959
31
0.000
8
0
6
XKITLINE01
62
2
0
LINE
10
564725.492
20
6589845.959
30
0.000
11
564736.531
21
6589843.430
31
0.000
8
0
6
XKITLINE01
62
2
0
LINE
10
564736.531
20
6589843.430
30
0.000
11
564737.961
21
6589843.102
31
0.000
8
0
6
XKITLINE01
62
2
0
LINE
10
564736.078
20
6589834.961
30
0.000
11
564720.230
21
6589767.859
31
0.000
8
0
6
XKITLINE01
62
2
0
LINE
10
564720.230
20
6589767.859
30
0.000
11
564674.441
21
6589782.559
31
0.000
8
0
6
XKITLINE01
62
2
0
LINE
10
564720.230
20
6589767.859
30
0.000
11
564736.078
21
6589834.961
31
0.000
8
0
6
XKITLINE01
62
2
0
LINE
10
564736.078
20
6589834.961
30
0.000
11
564737.961
21
6589843.102
31
0.000
8
0
6
XKITLINE01
62
2
0
LINE
10
564737.961
20
6589843.102
30
0.000
11
564777.691
21
6589833.859
31
0.000
8
0
6
XKITLINE01
62
2
0
LINE
10
564777.691
20
6589833.859
30
0.000
11
564775.801
21
6589826.281
31
0.000
8
0
6
XKITLINE01
62
2
0
LINE
10
564775.801
20
6589826.281
30
0.000
11
564759.430
21
6589755.191
31
0.000
8
0
6
XKITLINE01
62
2
0
LINE
10
564759.430
20
6589755.191
30
0.000
11
564720.230
21
6589767.859
31
0.000
8
0
6
XKITLINE01
62
2
0
LINE
10
564954.351
20
6589788.374
30
0.000
11
564933.180
21
6589773.141
31
0.000
8
0
6
XKITLINE01
62
2
0
LINE
10
564954.351
20
6589698.521
30
0.000
11
564931.672
21
6589704.051
31
0.000
8
0
6
XKITLINE01
62
2
0
LINE
10
564930.609
20
6589688.469
30
0.000
11
564954.351
21
6589680.889
31
0.000
8
0
6
XKITLINE01
62
2
0
LINE
10
564933.180
20
6589773.141
30
0.000
11
564921.840
21
6589728.621
31
0.000
8
0
6
XKITLINE01
62
2
0
LINE
10
564921.840
20
6589728.621
30
0.000
11
564937.898
21
6589724.570
31
0.000
8
0
6
XKITLINE01
62
2
0
LINE
10
564937.898
20
6589724.570
30
0.000
11
564931.672
21
6589704.051
31
0.000
8
0
6
XKITLINE01
62
2
0
LINE
10
564931.672
20
6589704.051
30
0.000
11
564769.051
21
6589752.449
31
0.000
8
0
6
XKITLINE01
62
2
0
LINE
10
564913.002
20
6589632.959
30
0.000
11
564930.609
21
6589688.469
31
0.000
8
0
6
XKITLINE01
62
2
0
LINE
10
564769.051
20
6589752.449
30
0.000
11
564791.232
21
6589845.959
31
0.000
8
0
6
XKITLINE01
62
2
0
LINE
10
564737.074
20
6589845.959
30
0.000
11
564736.531
21
6589843.430
31
0.000
8
0
6
XKITLINE01
62
2
0
LINE
10
564937.898
20
6589724.570
30
0.000
11
564921.840
21
6589728.621
31
0.000
8
0
6
XKITLINE01
62
2
0
LINE
10
564931.672
20
6589704.051
30
0.000
11
564937.898
21
6589724.570
31
0.000
8
0
6
XKITLINE01
62
2
0
LINE
10
564921.840
20
6589728.621
30
0.000
11
564933.180
21
6589773.141
31
0.000
8
0
6
XKITLINE01
62
2
0
LINE
10
564933.180
20
6589773.141
30
0.000
11
564954.351
21
6589788.374
31
0.000
8
0
6
XKITLINE01
62
2
0
LINE
10
564674.441
20
6589782.559
30
0.000
11
564646.805
21
6589791.324
31
0.000
8
0
6
XKITLINE01
62
2
0
LINE
10
564689.297
20
6589845.959
30
0.000
11
564674.441
21
6589782.559
31
0.000
8
0
6
XKITLINE01
62
2
0
LINE
10
564736.531
20
6589843.430
30
0.000
11
564725.492
21
6589845.959
31
0.000
8
0
6
XKITLINE01
62
2
0
LINE
10
564732.449
20
6589745.922
30
0.000
11
564690.621
21
6589759.512
31
0.000
8
0
6
XKITLINE01
62
2
0
LINE
10
564736.531
20
6589843.430
30
0.000
11
564737.074
21
6589845.959
31
0.000
8
0
6
XKITLINE01
62
2
0
LINE
10
564930.609
20
6589688.469
30
0.000
11
564913.002
21
6589632.959
31
0.000
8
0
6
XKITLINE01
62
2
0
LINE
10
564873.762
20
6589703.328
30
0.000
11
564930.609
21
6589688.469
31
0.000
8
0
6
XKITLINE01
62
2
0
LINE
10
564853.032
20
6589632.959
30
0.000
11
564873.762
21
6589703.328
31
0.000
8
0
6
XKITLINE01
62
2
0
LINE
10
564690.621
20
6589759.512
30
0.000
11
564646.805
21
6589774.378
31
0.000
8
0
6
XKITLINE01
62
2
0
LINE
10
564743.879
20
6589742.219
30
0.000
11
564732.449
21
6589745.922
31
0.000
8
0
6
XKITLINE01
62
2
0
LINE
10
564824.980
20
6589715.930
30
0.000
11
564743.879
21
6589742.219
31
0.000
8
0
6
XKITLINE01
62
2
0
LINE
10
564873.762
20
6589703.328
30
0.000
11
564824.980
21
6589715.930
31
0.000
8
0
6
XKITLINE01
62
2
0
LINE
10
564930.609
20
6589688.469
30
0.000
11
564873.762
21
6589703.328
31
0.000
8
0
6
XKITLINE01
62
2
0
LINE
10
564954.351
20
6589680.889
30
0.000
11
564930.609
21
6589688.469
31
0.000
8
0
6
XKITLINE01
62
2
0
LINE
10
564931.672
20
6589704.051
30
0.000
11
564954.351
21
6589698.521
31
0.000
8
0
6
XKITLINE01
62
2
0
LINE
10
564769.051
20
6589752.449
30
0.000
11
564931.672
21
6589704.051
31
0.000
8
0
6
XKITLINE01
62
2
0
LINE
10
564759.430
20
6589755.191
30
0.000
11
564769.051
21
6589752.449
31
0.000
8
0
6
XKITLINE01
62
2
0
LINE
10
564720.230
20
6589767.859
30
0.000
11
564759.430
21
6589755.191
31
0.000
8
0
6
XKITLINE01
62
2
0
LINE
10
564674.441
20
6589782.559
30
0.000
11
564720.230
21
6589767.859
31
0.000
8
0
6
XKITLINE01
62
2
0
LINE
10
564646.805
20
6589791.324
30
0.000
11
564674.441
21
6589782.559
31
0.000
8
0
6
XKITLINE01
62
2
0
LINE
10
564743.820
20
6589737.559
30
0.000
11
564779.699
21
6589723.590
31
0.000
8
0
6
XKITLINE01
62
2
0
LINE
10
564743.879
20
6589742.219
30
0.000
11
564743.820
21
6589737.559
31
0.000
8
0
6
XKITLINE01
62
2
0
LINE
10
564646.805
20
6589691.507
30
0.000
11
564705.461
21
6589672.020
31
0.000
8
0
6
XKITLINE01
62
2
0
LINE
10
564705.461
20
6589672.020
30
0.000
11
564732.449
21
6589745.922
31
0.000
8
0
6
XKITLINE01
62
2
0
LINE
10
564779.699
20
6589723.590
30
0.000
11
564743.820
21
6589737.559
31
0.000
8
0
6
XKITLINE01
62
2
0
LINE
10
564756.480
20
6589655.078
30
0.000
11
564779.699
21
6589723.590
31
0.000
8
0
6
XKITLINE01
62
2
0
LINE
10
564824.980
20
6589715.930
30
0.000
11
564804.430
21
6589639.109
31
0.000
8
0
6
XKITLINE01
62
2
0
LINE
10
564743.879
20
6589742.219
30
0.000
11
564824.980
21
6589715.930
31
0.000
8
0
6
XKITLINE01
62
2
0
LINE
10
564743.820
20
6589737.559
30
0.000
11
564743.879
21
6589742.219
31
0.000
8
0
6
XKITLINE01
62
2
0
LINE
10
564705.461
20
6589672.020
30
0.000
11
564646.805
21
6589691.507
31
0.000
8
0
6
XKITLINE01
62
2
0
LINE
10
564804.430
20
6589639.109
30
0.000
11
564756.480
21
6589655.078
31
0.000
8
0
6
XKITLINE01
62
2
0
LINE
10
564690.621
20
6589759.512
30
0.000
11
564732.449
21
6589745.922
31
0.000
8
0
6
XKITLINE01
62
2
0
LINE
10
564646.805
20
6589774.378
30
0.000
11
564690.621
21
6589759.512
31
0.000
8
0
6
XKITLINE01
62
2
0
LINE
10
564756.480
20
6589655.078
30
0.000
11
564705.461
21
6589672.020
31
0.000
8
0
6
XKITLINE01
62
2
0
LINE
10
564779.699
20
6589723.590
30
0.000
11
564756.480
21
6589655.078
31
0.000
8
0
6
XKITLINE01
62
2
0
LINE
10
564732.449
20
6589745.922
30
0.000
11
564705.461
21
6589672.020
31
0.000
8
0
6
XKITLINE01
62
2
0
LINE
10
564777.691
20
6589833.859
30
0.000
11
564780.684
21
6589845.959
31
0.000
8
0
6
XKITLINE01
62
2
0
LINE
10
564775.801
20
6589826.281
30
0.000
11
564777.691
21
6589833.859
31
0.000
8
0
6
XKITLINE01
62
2
0
LINE
10
564759.430
20
6589755.191
30
0.000
11
564775.801
21
6589826.281
31
0.000
8
0
6
XKITLINE01
62
2
0
LINE
10
564791.232
20
6589845.959
30
0.000
11
564769.051
21
6589752.449
31
0.000
8
0
6
XKITLINE01
62
2
0
LINE
10
564769.051
20
6589752.449
30
0.000
11
564759.430
21
6589755.191
31
0.000
8
0
6
XKITLINE01
62
2
0
LINE
10
564931.113
20
6589711.531
30
0.000
11
564932.123
21
6589714.356
31
0.000
8
0
6
XKITLINE00
62
3
0
LINE
10
564929.447
20
6589716.375
30
0.000
11
564935.473
21
6589714.221
31
0.000
8
0
6
XKITLINE00
62
3
0
LINE
10
564935.473
20
6589714.221
30
0.000
11
564935.136
21
6589713.279
31
0.000
8
0
6
XKITLINE00
62
3
0
LINE
10
564935.136
20
6589713.279
30
0.000
11
564929.110
21
6589715.433
31
0.000
8
0
6
XKITLINE00
62
3
0
LINE
10
564929.110
20
6589715.433
30
0.000
11
564929.447
21
6589716.375
31
0.000
8
0
6
XKITLINE00
62
3
0
LINE
10
564929.447
20
6589716.375
30
0.000
11
564929.447
21
6589716.375
31
0.000
8
0
6
XKITLINE00
62
3
0
LINE
10
564784.348
20
6589698.473
30
0.000
11
564781.354
21
6589698.671
31
0.000
8
0
6
XKITLINE00
62
3
0
LINE
10
564780.144
20
6589695.545
30
0.000
11
564780.568
21
6589701.931
31
0.000
8
0
6
XKITLINE00
62
3
0
LINE
10
564780.568
20
6589701.931
30
0.000
11
564781.566
21
6589701.864
31
0.000
8
0
6
XKITLINE00
62
3
0
LINE
10
564781.566
20
6589701.864
30
0.000
11
564781.142
21
6589695.478
31
0.000
8
0
6
XKITLINE00
62
3
0
LINE
10
564781.142
20
6589695.478
30
0.000
11
564780.144
21
6589695.545
31
0.000
8
0
6
XKITLINE00
62
3
0
LINE
10
564780.144
20
6589695.545
30
0.000
11
564780.144
21
6589695.545
31
0.000
8
0
6
XKITLINE00
62
3
0
LINE
10
564878.609
20
6589662.496
30
0.000
11
564878.609
21
6589665.496
31
0.000
8
0
6
XKITLINE00
62
3
0
LINE
10
564875.409
20
6589666.496
30
0.000
11
564881.809
21
6589666.496
31
0.000
8
0
6
XKITLINE00
62
3
0
LINE
10
564881.809
20
6589666.496
30
0.000
11
564881.809
21
6589665.496
31
0.000
8
0
6
XKITLINE00
62
3
0
LINE
10
564881.809
20
6589665.496
30
0.000
11
564875.409
21
6589665.496
31
0.000
8
0
6
XKITLINE00
62
3
0
LINE
10
564875.409
20
6589665.496
30
0.000
11
564875.409
21
6589666.496
31
0.000
8
0
6
XKITLINE00
62
3
0
LINE
10
564875.409
20
6589666.496
30
0.000
11
564875.409
21
6589666.496
31
0.000
8
0
6
XKITLINE00
62
3
0
LINE
10
564879.117
20
6589661.418
30
0.000
11
564881.838
21
6589662.681
31
0.000
8
0
6
XKITLINE00
62
3
0
LINE
10
564881.398
20
6589666.005
30
0.000
11
564884.093
21
6589660.200
31
0.000
8
0
6
XKITLINE00
62
3
0
LINE
10
564884.093
20
6589660.200
30
0.000
11
564883.186
21
6589659.779
31
0.000
8
0
6
XKITLINE00
62
3
0
LINE
10
564883.186
20
6589659.779
30
0.000
11
564880.491
21
6589665.584
31
0.000
8
0
6
XKITLINE00
62
3
0
LINE
10
564880.491
20
6589665.584
30
0.000
11
564881.398
21
6589666.005
31
0.000
8
0
6
XKITLINE00
62
3
0
LINE
10
564881.398
20
6589666.005
30
0.000
11
564881.398
21
6589666.005
31
0.000
8
0
6
XKITLINE00
62
3
0
LINE
10
564953.377
20
6589656.862
30
0.000
11
564954.351
21
6589656.882
31
0.000
8
0
6
XKITLINE00
62
3
0
LINE
10
564954.351
20
6589656.882
30
0.000
11
564954.351
21
6589655.882
31
0.000
8
0
6
XKITLINE00
62
3
0
LINE
10
564954.351
20
6589655.882
30
0.000
11
564953.398
21
6589655.862
31
0.000
8
0
6
XKITLINE00
62
3
0
LINE
10
564953.398
20
6589655.862
30
0.000
11
564953.377
21
6589656.862
31
0.000
8
0
6
XKITLINE00
62
3
0
LINE
10
564953.377
20
6589656.862
30
0.000
11
564953.377
21
6589656.862
31
0.000
8
0
6
XKITLINE00
62
3
0
LINE
10
564774.215
20
6589757.188
30
0.000
11
564777.215
21
6589757.162
31
0.000
8
0
6
XKITLINE00
62
3
0
LINE
10
564778.242
20
6589760.353
30
0.000
11
564778.187
21
6589753.953
31
0.000
8
0
6
XKITLINE00
62
3
0
LINE
10
564778.187
20
6589753.953
30
0.000
11
564777.187
21
6589753.962
31
0.000
8
0
6
XKITLINE00
62
3
0
LINE
10
564777.187
20
6589753.962
30
0.000
11
564777.242
21
6589760.362
31
0.000
8
0
6
XKITLINE00
62
3
0
LINE
10
564777.242
20
6589760.362
30
0.000
11
564778.242
21
6589760.353
31
0.000
8
0
6
XKITLINE00
62
3
0
LINE
10
564778.242
20
6589760.353
30
0.000
11
564778.242
21
6589760.353
31
0.000
8
0
6
XKITLINE00
62
3
0
LINE
10
564770.535
20
6589817.203
30
0.000
11
564767.539
21
6589817.045
31
0.000
8
0
6
XKITLINE00
62
3
0
LINE
10
564766.709
20
6589813.797
30
0.000
11
564766.372
21
6589820.188
31
0.000
8
0
6
XKITLINE00
62
3
0
LINE
10
564766.372
20
6589820.188
30
0.000
11
564767.371
21
6589820.241
31
0.000
8
0
6
XKITLINE00
62
3
0
LINE
10
564767.371
20
6589820.241
30
0.000
11
564767.707
21
6589813.850
31
0.000
8
0
6
XKITLINE00
62
3
0
LINE
10
564767.707
20
6589813.850
30
0.000
11
564766.709
21
6589813.797
31
0.000
8
0
6
XKITLINE00
62
3
0
LINE
10
564766.709
20
6589813.797
30
0.000
11
564766.709
21
6589813.797
31
0.000
8
0
6
XKITLINE00
62
3
0
LINE
10
564822.770
20
6589715.473
30
0.000
11
564821.191
21
6589712.921
31
0.000
8
0
6
XKITLINE00
62
5
0
LINE
10
564823.387
20
6589710.387
30
0.000
11
564817.944
21
6589713.754
31
0.000
8
0
6
XKITLINE00
62
5
0
LINE
10
564817.944
20
6589713.754
30
0.000
11
564818.470
21
6589714.605
31
0.000
8
0
6
XKITLINE00
62
5
0
LINE
10
564818.470
20
6589714.605
30
0.000
11
564823.913
21
6589711.238
31
0.000
8
0
6
XKITLINE00
62
5
0
LINE
10
564823.913
20
6589711.238
30
0.000
11
564823.387
21
6589710.387
31
0.000
8
0
6
XKITLINE00
62
5
0
LINE
10
564823.387
20
6589710.387
30
0.000
11
564823.387
21
6589710.387
31
0.000
8
0
6
XKITLINE00
62
5
0
CIRCLE
10
564772.746
20
6589759.180
30
0.000
40
0.006
8
0
6
XKITLINE00
62
7
0
LINE
10
564772.752
20
6589759.180
30
0.000
11
564772.758
21
6589759.180
31
0.000
8
0
6
XKITLINE00
62
7
0
LINE
10
564775.235
20
6589818.103
30
0.000
11
564775.235
21
6589816.303
31
0.000
8
0
6
XKITLINE00
62
7
0
LINE
10
564775.235
20
6589816.303
30
0.000
11
564769.835
21
6589816.303
31
0.000
8
0
6
XKITLINE00
62
7
0
LINE
10
564769.835
20
6589816.303
30
0.000
11
564769.835
21
6589818.103
31
0.000
8
0
6
XKITLINE00
62
7
0
LINE
10
564769.835
20
6589818.103
30
0.000
11
564775.235
21
6589818.103
31
0.000
8
0
6
XKITLINE00
62
7
0
LINE
10
564877.876
20
6589663.904
30
0.000
11
564877.876
21
6589662.104
31
0.000
8
0
6
XKITLINE00
62
7
0
LINE
10
564877.876
20
6589662.104
30
0.000
11
564872.476
21
6589662.104
31
0.000
8
0
6
XKITLINE00
62
7
0
LINE
10
564872.476
20
6589662.104
30
0.000
11
564872.476
21
6589663.904
31
0.000
8
0
6
XKITLINE00
62
7
0
LINE
10
564872.476
20
6589663.904
30
0.000
11
564877.876
21
6589663.904
31
0.000
8
0
6
XKITLINE00
62
7
0
LINE
10
564711.544
20
6589802.857
30
0.000
11
564711.544
21
6589801.057
31
0.000
8
0
6
XKITLINE00
62
7
0
LINE
10
564711.544
20
6589801.057
30
0.000
11
564706.144
21
6589801.057
31
0.000
8
0
6
XKITLINE00
62
7
0
LINE
10
564706.144
20
6589801.057
30
0.000
11
564706.144
21
6589802.857
31
0.000
8
0
6
XKITLINE00
62
7
0
LINE
10
564706.144
20
6589802.857
30
0.000
11
564711.544
21
6589802.857
31
0.000
8
0
6
XKITLINE00
62
7
0
LINE
10
564811.052
20
6589785.240
30
0.000
11
564811.052
21
6589783.440
31
0.000
8
0
6
XKITLINE00
62
7
0
LINE
10
564811.052
20
6589783.440
30
0.000
11
564805.652
21
6589783.440
31
0.000
8
0
6
XKITLINE00
62
7
0
LINE
10
564805.652
20
6589783.440
30
0.000
11
564805.652
21
6589785.240
31
0.000
8
0
6
XKITLINE00
62
7
0
LINE
10
564805.652
20
6589785.240
30
0.000
11
564811.052
21
6589785.240
31
0.000
8
0
6
XKITLINE00
62
7
0
LINE
10
564774.950
20
6589815.798
30
0.000
11
564774.950
21
6589813.998
31
0.000
8
0
6
XKITLINE00
62
7
0
LINE
10
564774.950
20
6589813.998
30
0.000
11
564769.550
21
6589813.998
31
0.000
8
0
6
XKITLINE00
62
7
0
LINE
10
564769.550
20
6589813.998
30
0.000
11
564769.550
21
6589815.798
31
0.000
8
0
6
XKITLINE00
62
7
0
LINE
10
564769.550
20
6589815.798
30
0.000
11
564774.950
21
6589815.798
31
0.000
8
0
6
XKITLINE00
62
7
0
LINE
10
564772.746
20
6589759.109
30
0.000
11
564772.740
21
6589759.109
31
0.000
8
0
6
XKITLINE00
62
7
0
LINE
10
564772.746
20
6589759.103
30
0.000
11
564772.746
21
6589759.115
31
0.000
8
0
6
XKITLINE00
62
7
0
LINE
10
564783.729
20
6589700.405
30
0.000
11
564785.529
21
6589700.405
31
0.000
8
0
6
XKITLINE00
62
3
0
LINE
10
564785.529
20
6589700.405
30
0.000
11
564785.529
21
6589696.805
31
0.000
8
0
6
XKITLINE00
62
3
0
LINE
10
564785.529
20
6589696.805
30
0.000
11
564783.729
21
6589696.805
31
0.000
8
0
6
XKITLINE00
62
3
0
LINE
10
564783.729
20
6589696.805
30
0.000
11
564783.729
21
6589700.405
31
0.000
8
0
6
XKITLINE00
62
3
0
LINE
10
564783.729
20
6589700.405
30
0.000
11
564785.529
21
6589696.805
31
0.000
8
0
6
XKITLINE00
62
3
0
LINE
10
564783.729
20
6589698.605
30
0.000
11
564784.629
21
6589696.805
31
0.000
8
0
6
XKITLINE00
62
3
0
LINE
10
564932.737
20
6589713.508
30
0.000
11
564934.469
21
6589713.019
31
0.000
8
0
6
XKITLINE00
62
3
0
LINE
10
564934.469
20
6589713.019
30
0.000
11
564933.490
21
6589709.554
31
0.000
8
0
6
XKITLINE00
62
3
0
LINE
10
564933.490
20
6589709.554
30
0.000
11
564931.758
21
6589710.044
31
0.000
8
0
6
XKITLINE00
62
3
0
LINE
10
564931.758
20
6589710.044
30
0.000
11
564932.737
21
6589713.508
31
0.000
8
0
6
XKITLINE00
62
3
0
LINE
10
564932.737
20
6589713.508
30
0.000
11
564933.490
21
6589709.554
31
0.000
8
0
6
XKITLINE00
62
3
0
LINE
10
564932.247
20
6589711.776
30
0.000
11
564932.624
21
6589709.799
31
0.000
8
0
6
XKITLINE00
62
3
0
LINE
10
564930.930
20
6589714.018
30
0.000
11
564932.664
21
6589713.537
31
0.000
8
0
6
XKITLINE00
62
3
0
LINE
10
564932.664
20
6589713.537
30
0.000
11
564931.703
21
6589710.068
31
0.000
8
0
6
XKITLINE00
62
3
0
LINE
10
564931.703
20
6589710.068
30
0.000
11
564929.969
21
6589710.549
31
0.000
8
0
6
XKITLINE00
62
3
0
LINE
10
564929.969
20
6589710.549
30
0.000
11
564930.930
21
6589714.018
31
0.000
8
0
6
XKITLINE00
62
3
0
LINE
10
564930.930
20
6589714.018
30
0.000
11
564931.703
21
6589710.068
31
0.000
8
0
6
XKITLINE00
62
3
0
LINE
10
564930.449
20
6589712.283
30
0.000
11
564930.836
21
6589710.308
31
0.000
8
0
6
XKITLINE00
62
3
0
LINE
10
564777.115
20
6589755.387
30
0.000
11
564775.315
21
6589755.387
31
0.000
8
0
6
XKITLINE00
62
3
0
LINE
10
564775.315
20
6589755.387
30
0.000
11
564775.315
21
6589758.988
31
0.000
8
0
6
XKITLINE00
62
3
0
LINE
10
564775.315
20
6589758.988
30
0.000
11
564777.115
21
6589758.988
31
0.000
8
0
6
XKITLINE00
62
3
0
LINE
10
564777.115
20
6589758.988
30
0.000
11
564777.115
21
6589755.387
31
0.000
8
0
6
XKITLINE00
62
3
0
LINE
10
564777.115
20
6589755.387
30
0.000
11
564775.315
21
6589758.988
31
0.000
8
0
6
XKITLINE00
62
3
0
LINE
10
564777.115
20
6589757.188
30
0.000
11
564776.215
21
6589758.988
31
0.000
8
0
6
XKITLINE00
62
3
0
LINE
10
564820.777
20
6589715.188
30
0.000
11
564821.347
21
6589716.896
31
0.000
8
0
6
XKITLINE00
62
5
0
LINE
10
564821.347
20
6589716.896
30
0.000
11
564824.762
21
6589715.757
31
0.000
8
0
6
XKITLINE00
62
5
0
LINE
10
564824.762
20
6589715.757
30
0.000
11
564824.193
21
6589714.050
31
0.000
8
0
6
XKITLINE00
62
5
0
LINE
10
564824.193
20
6589714.050
30
0.000
11
564820.777
21
6589715.188
31
0.000
8
0
6
XKITLINE00
62
5
0
LINE
10
564820.777
20
6589715.188
30
0.000
11
564824.762
21
6589715.757
31
0.000
8
0
6
XKITLINE00
62
5
0
LINE
10
564822.485
20
6589714.619
30
0.000
11
564824.477
21
6589714.903
31
0.000
8
0
6
XKITLINE00
62
5
0
LINE
10
564929.897
20
6589710.453
30
0.000
11
564931.627
21
6589709.958
31
0.000
8
0
6
XKITLINE00
62
1
0
LINE
10
564931.627
20
6589709.958
30
0.000
11
564930.142
21
6589704.766
31
0.000
8
0
6
XKITLINE00
62
1
0
LINE
10
564930.142
20
6589704.766
30
0.000
11
564928.412
21
6589705.261
31
0.000
8
0
6
XKITLINE00
62
1
0
LINE
10
564928.412
20
6589705.261
30
0.000
11
564929.897
21
6589710.453
31
0.000
8
0
6
XKITLINE00
62
1
0
LINE
10
564928.907
20
6589706.992
30
0.000
11
564930.637
21
6589706.497
31
0.000
8
0
6
XKITLINE00
62
1
0
LINE
10
564929.402
20
6589708.722
30
0.000
11
564931.132
21
6589708.227
31
0.000
8
0
6
XKITLINE00
62
1
0
LINE
10
564954.351
20
6589680.569
30
0.000
11
564950.230
21
6589680.569
31
0.000
8
0
6
XKITLINE00
62
1
0
LINE
10
564950.230
20
6589680.569
30
0.000
11
564950.230
21
6589682.369
31
0.000
8
0
6
XKITLINE00
62
1
0
LINE
10
564950.230
20
6589682.369
30
0.000
11
564954.351
21
6589682.369
31
0.000
8
0
6
XKITLINE00
62
1
0
LINE
10
564952.030
20
6589682.369
30
0.000
11
564952.030
21
6589680.569
31
0.000
8
0
6
XKITLINE00
62
1
0
LINE
10
564953.830
20
6589682.369
30
0.000
11
564953.830
21
6589680.569
31
0.000
8
0
6
XKITLINE00
62
1
0
LINE
10
564877.534
20
6589663.421
30
0.000
11
564879.334
21
6589663.421
31
0.000
8
0
6
XKITLINE00
62
3
0
LINE
10
564879.334
20
6589663.421
30
0.000
11
564879.334
21
6589659.821
31
0.000
8
0
6
XKITLINE00
62
3
0
LINE
10
564879.334
20
6589659.821
30
0.000
11
564877.534
21
6589659.821
31
0.000
8
0
6
XKITLINE00
62
3
0
LINE
10
564877.534
20
6589659.821
30
0.000
11
564877.534
21
6589663.421
31
0.000
8
0
6
XKITLINE00
62
3
0
LINE
10
564877.534
20
6589663.421
30
0.000
11
564879.334
21
6589659.821
31
0.000
8
0
6
XKITLINE00
62
3
0
LINE
10
564952.838
20
6589681.435
30
0.000
11
564952.850
21
6589681.435
31
0.000
8
0
6
XKITLINE00
62
3
0
LINE
10
564952.850
20
6589681.435
30
0.000
11
564952.850
21
6589681.453
31
0.000
8
0
6
XKITLINE00
62
3
0
LINE
10
564952.850
20
6589681.453
30
0.000
11
564952.838
21
6589681.453
31
0.000
8
0
6
XKITLINE00
62
3
0
LINE
10
564952.838
20
6589681.453
30
0.000
11
564952.838
21
6589681.435
31
0.000
8
0
6
XKITLINE00
62
3
0
CIRCLE
10
564952.844
20
6589681.444
30
0.000
40
0.003
8
0
6
XKITLINE00
62
3
0
LINE
10
564952.844
20
6589681.435
30
0.000
11
564952.844
21
6589681.426
31
0.000
8
0
6
XKITLINE00
62
7
0
LINE
10
564952.844
20
6589681.453
30
0.000
11
564952.844
21
6589681.465
31
0.000
8
0
6
XKITLINE00
62
7
0
LINE
10
564772.488
20
6589759.066
30
0.000
11
564772.488
21
6589759.074
31
0.000
8
0
6
XKITLINE00
62
7
0
LINE
10
564772.476
20
6589759.098
30
0.000
11
564772.488
21
6589759.074
31
0.000
8
0
6
XKITLINE00
62
7
0
LINE
10
564772.488
20
6589759.108
30
0.000
11
564772.488
21
6589759.098
31
0.000
8
0
6
XKITLINE00
62
7
0
LINE
10
564772.484
20
6589759.109
30
0.000
11
564772.492
21
6589759.100
31
0.000
8
0
6
XKITLINE00
62
7
0
LINE
10
564772.493
20
6589759.109
30
0.000
11
564772.484
21
6589759.100
31
0.000
8
0
6
XKITLINE00
62
7
0
LINE
10
564772.494
20
6589759.098
30
0.000
11
564772.482
21
6589759.098
31
0.000
8
0
6
XKITLINE00
62
7
0
LINE
10
564772.509
20
6589759.088
30
0.000
11
564772.509
21
6589759.084
31
0.000
8
0
6
XKITLINE00
62
1
0
LINE
10
564772.509
20
6589759.084
30
0.000
11
564772.488
21
6589759.084
31
0.000
8
0
6
XKITLINE00
62
1
0
LINE
10
564772.488
20
6589759.084
30
0.000
11
564772.488
21
6589759.088
31
0.000
8
0
6
XKITLINE00
62
1
0
LINE
10
564772.488
20
6589759.088
30
0.000
11
564772.509
21
6589759.088
31
0.000
8
0
6
XKITLINE00
62
1
0
LINE
10
564772.509
20
6589759.088
30
0.000
11
564772.509
21
6589759.088
31
0.000
8
0
6
XKITLINE00
62
1
0
LINE
10
564772.488
20
6589759.085
30
0.000
11
564772.509
21
6589759.085
31
0.000
8
0
6
XKITLINE00
62
1
0
LINE
10
564772.509
20
6589759.085
30
0.000
11
564772.509
21
6589759.088
31
0.000
8
0
6
XKITLINE00
62
1
0
LINE
10
564772.509
20
6589759.088
30
0.000
11
564772.488
21
6589759.088
31
0.000
8
0
6
XKITLINE00
62
1
0
LINE
10
564772.488
20
6589759.088
30
0.000
11
564772.488
21
6589759.085
31
0.000
8
0
6
XKITLINE00
62
1
0
LINE
10
564772.918
20
6589759.066
30
0.000
11
564772.918
21
6589759.074
31
0.000
8
0
6
XKITLINE00
62
7
0
LINE
10
564772.906
20
6589759.098
30
0.000
11
564772.918
21
6589759.074
31
0.000
8
0
6
XKITLINE00
62
7
0
CIRCLE
10
564772.918
20
6589759.098
30
0.000
40
0.002
8
0
6
XKITLINE00
62
7
0
LINE
10
564772.918
20
6589759.108
30
0.000
11
564772.918
21
6589759.100
31
0.000
8
0
6
XKITLINE00
62
7
0
LINE
10
564772.912
20
6589759.104
30
0.000
11
564772.924
21
6589759.104
31
0.000
8
0
6
XKITLINE00
62
7
0
LINE
10
564772.912
20
6589759.079
30
0.000
11
564772.917
21
6589759.082
31
0.000
8
0
6
XKITLINE00
62
7
0
LINE
10
564772.917
20
6589759.082
30
0.000
11
564772.912
21
6589759.093
31
0.000
8
0
6
XKITLINE00
62
7
0
LINE
10
564772.912
20
6589759.093
30
0.000
11
564772.907
21
6589759.090
31
0.000
8
0
6
XKITLINE00
62
7
0
LINE
10
564772.907
20
6589759.090
30
0.000
11
564772.912
21
6589759.079
31
0.000
8
0
6
XKITLINE00
62
7
0
LINE
10
564952.930
20
6589681.426
30
0.000
11
564952.930
21
6589681.434
31
0.000
8
0
6
XKITLINE00
62
7
0
LINE
10
564952.918
20
6589681.458
30
0.000
11
564952.930
21
6589681.434
31
0.000
8
0
6
XKITLINE00
62
7
0
CIRCLE
10
564952.930
20
6589681.458
30
0.000
40
0.002
8
0
6
XKITLINE00
62
7
0
LINE
10
564952.930
20
6589681.468
30
0.000
11
564952.930
21
6589681.460
31
0.000
8
0
6
XKITLINE00
62
7
0
LINE
10
564952.924
20
6589681.464
30
0.000
11
564952.936
21
6589681.464
31
0.000
8
0
6
XKITLINE00
62
7
0
LINE
10
564952.924
20
6589681.439
30
0.000
11
564952.929
21
6589681.442
31
0.000
8
0
6
XKITLINE00
62
7
0
LINE
10
564952.929
20
6589681.442
30
0.000
11
564952.924
21
6589681.452
31
0.000
8
0
6
XKITLINE00
62
7
0
LINE
10
564952.924
20
6589681.452
30
0.000
11
564952.918
21
6589681.450
31
0.000
8
0
6
XKITLINE00
62
7
0
LINE
10
564952.918
20
6589681.450
30
0.000
11
564952.924
21
6589681.439
31
0.000
8
0
6
XKITLINE00
62
7
0
LINE
10
564953.016
20
6589681.426
30
0.000
11
564953.016
21
6589681.434
31
0.000
8
0
6
XKITLINE00
62
7
0
LINE
10
564953.004
20
6589681.458
30
0.000
11
564953.016
21
6589681.434
31
0.000
8
0
6
XKITLINE00
62
7
0
CIRCLE
10
564953.016
20
6589681.458
30
0.000
40
0.002
8
0
6
XKITLINE00
62
7
0
LINE
10
564953.016
20
6589681.468
30
0.000
11
564953.016
21
6589681.460
31
0.000
8
0
6
XKITLINE00
62
7
0
LINE
10
564953.010
20
6589681.464
30
0.000
11
564953.022
21
6589681.464
31
0.000
8
0
6
XKITLINE00
62
7
0
LINE
10
564953.010
20
6589681.439
30
0.000
11
564953.015
21
6589681.442
31
0.000
8
0
6
XKITLINE00
62
7
0
LINE
10
564953.015
20
6589681.442
30
0.000
11
564953.010
21
6589681.452
31
0.000
8
0
6
XKITLINE00
62
7
0
LINE
10
564953.010
20
6589681.452
30
0.000
11
564953.004
21
6589681.450
31
0.000
8
0
6
XKITLINE00
62
7
0
LINE
10
564953.004
20
6589681.450
30
0.000
11
564953.010
21
6589681.439
31
0.000
8
0
6
XKITLINE00
62
7
0
LINE
10
564772.746
20
6589759.066
30
0.000
11
564772.746
21
6589759.074
31
0.000
8
0
6
XKITLINE00
62
7
0
LINE
10
564772.734
20
6589759.098
30
0.000
11
564772.746
21
6589759.074
31
0.000
8
0
6
XKITLINE00
62
7
0
CIRCLE
10
564772.746
20
6589759.098
30
0.000
40
0.002
8
0
6
XKITLINE00
62
7
0
LINE
10
564772.746
20
6589759.108
30
0.000
11
564772.746
21
6589759.100
31
0.000
8
0
6
XKITLINE00
62
7
0
LINE
10
564772.740
20
6589759.104
30
0.000
11
564772.752
21
6589759.104
31
0.000
8
0
6
XKITLINE00
62
7
0
LINE
10
564772.740
20
6589759.079
30
0.000
11
564772.746
21
6589759.082
31
0.000
8
0
6
XKITLINE00
62
7
0
LINE
10
564772.746
20
6589759.082
30
0.000
11
564772.740
21
6589759.093
31
0.000
8
0
6
XKITLINE00
62
7
0
LINE
10
564772.740
20
6589759.093
30
0.000
11
564772.735
21
6589759.090
31
0.000
8
0
6
XKITLINE00
62
7
0
LINE
10
564772.735
20
6589759.090
30
0.000
11
564772.740
21
6589759.079
31
0.000
8
0
6
XKITLINE00
62
7
0
LINE
10
564772.832
20
6589759.066
30
0.000
11
564772.832
21
6589759.074
31
0.000
8
0
6
XKITLINE00
62
7
0
LINE
10
564772.820
20
6589759.098
30
0.000
11
564772.832
21
6589759.074
31
0.000
8
0
6
XKITLINE00
62
7
0
CIRCLE
10
564772.832
20
6589759.098
30
0.000
40
0.002
8
0
6
XKITLINE00
62
7
0
LINE
10
564772.832
20
6589759.108
30
0.000
11
564772.832
21
6589759.100
31
0.000
8
0
6
XKITLINE00
62
7
0
LINE
10
564772.826
20
6589759.104
30
0.000
11
564772.838
21
6589759.104
31
0.000
8
0
6
XKITLINE00
62
7
0
LINE
10
564772.826
20
6589759.079
30
0.000
11
564772.831
21
6589759.082
31
0.000
8
0
6
XKITLINE00
62
7
0
LINE
10
564772.831
20
6589759.082
30
0.000
11
564772.826
21
6589759.093
31
0.000
8
0
6
XKITLINE00
62
7
0
LINE
10
564772.826
20
6589759.093
30
0.000
11
564772.820
21
6589759.090
31
0.000
8
0
6
XKITLINE00
62
7
0
LINE
10
564772.820
20
6589759.090
30
0.000
11
564772.826
21
6589759.079
31
0.000
8
0
6
XKITLINE00
62
7
0
LINE
10
564773.004
20
6589759.066
30
0.000
11
564773.004
21
6589759.074
31
0.000
8
0
6
XKITLINE00
62
7
0
LINE
10
564772.992
20
6589759.098
30
0.000
11
564773.004
21
6589759.074
31
0.000
8
0
6
XKITLINE00
62
7
0
CIRCLE
10
564773.004
20
6589759.098
30
0.000
40
0.002
8
0
6
XKITLINE00
62
7
0
LINE
10
564773.004
20
6589759.108
30
0.000
11
564773.004
21
6589759.100
31
0.000
8
0
6
XKITLINE00
62
7
0
LINE
10
564772.998
20
6589759.104
30
0.000
11
564773.010
21
6589759.104
31
0.000
8
0
6
XKITLINE00
62
7
0
LINE
10
564772.998
20
6589759.079
30
0.000
11
564773.003
21
6589759.082
31
0.000
8
0
6
XKITLINE00
62
7
0
LINE
10
564773.003
20
6589759.082
30
0.000
11
564772.998
21
6589759.093
31
0.000
8
0
6
XKITLINE00
62
7
0
LINE
10
564772.998
20
6589759.093
30
0.000
11
564772.993
21
6589759.090
31
0.000
8
0
6
XKITLINE00
62
7
0
LINE
10
564772.993
20
6589759.090
30
0.000
11
564772.998
21
6589759.079
31
0.000
8
0
6
XKITLINE00
62
7
0
LINE
10
564772.574
20
6589759.066
30
0.000
11
564772.574
21
6589759.074
31
0.000
8
0
6
XKITLINE00
62
7
0
LINE
10
564772.562
20
6589759.098
30
0.000
11
564772.574
21
6589759.074
31
0.000
8
0
6
XKITLINE00
62
7
0
CIRCLE
10
564772.574
20
6589759.098
30
0.000
40
0.002
8
0
6
XKITLINE00
62
7
0
LINE
10
564772.574
20
6589759.108
30
0.000
11
564772.574
21
6589759.100
31
0.000
8
0
6
XKITLINE00
62
7
0
LINE
10
564772.568
20
6589759.104
30
0.000
11
564772.580
21
6589759.104
31
0.000
8
0
6
XKITLINE00
62
7
0
LINE
10
564772.568
20
6589759.079
30
0.000
11
564772.574
21
6589759.082
31
0.000
8
0
6
XKITLINE00
62
7
0
LINE
10
564772.574
20
6589759.082
30
0.000
11
564772.568
21
6589759.093
31
0.000
8
0
6
XKITLINE00
62
7
0
LINE
10
564772.568
20
6589759.093
30
0.000
11
564772.563
21
6589759.090
31
0.000
8
0
6
XKITLINE00
62
7
0
LINE
10
564772.563
20
6589759.090
30
0.000
11
564772.568
21
6589759.079
31
0.000
8
0
6
XKITLINE00
62
7
0
LINE
10
564772.660
20
6589759.066
30
0.000
11
564772.660
21
6589759.074
31
0.000
8
0
6
XKITLINE00
62
7
0
LINE
10
564772.648
20
6589759.098
30
0.000
11
564772.660
21
6589759.074
31
0.000
8
0
6
XKITLINE00
62
7
0
CIRCLE
10
564772.660
20
6589759.098
30
0.000
40
0.002
8
0
6
XKITLINE00
62
7
0
LINE
10
564772.660
20
6589759.108
30
0.000
11
564772.660
21
6589759.100
31
0.000
8
0
6
XKITLINE00
62
7
0
LINE
10
564772.654
20
6589759.104
30
0.000
11
564772.666
21
6589759.104
31
0.000
8
0
6
XKITLINE00
62
7
0
LINE
10
564772.654
20
6589759.079
30
0.000
11
564772.660
21
6589759.082
31
0.000
8
0
6
XKITLINE00
62
7
0
LINE
10
564772.660
20
6589759.082
30
0.000
11
564772.654
21
6589759.093
31
0.000
8
0
6
XKITLINE00
62
7
0
LINE
10
564772.654
20
6589759.093
30
0.000
11
564772.649
21
6589759.090
31
0.000
8
0
6
XKITLINE00
62
7
0
LINE
10
564772.649
20
6589759.090
30
0.000
11
564772.654
21
6589759.079
31
0.000
8
0
6
XKITLINE00
62
7
0
LINE
10
564822.770
20
6589715.473
30
0.000
11
564822.770
21
6589715.481
31
0.000
8
0
6
XKITLINE00
62
5
0
LINE
10
564822.758
20
6589715.505
30
0.000
11
564822.770
21
6589715.481
31
0.000
8
0
6
XKITLINE00
62
5
0
CIRCLE
10
564822.770
20
6589715.505
30
0.000
40
0.002
8
0
6
XKITLINE00
62
5
0
LINE
10
564822.770
20
6589715.515
30
0.000
11
564822.770
21
6589715.507
31
0.000
8
0
6
XKITLINE00
62
5
0
LINE
10
564822.764
20
6589715.511
30
0.000
11
564822.776
21
6589715.511
31
0.000
8
0
6
XKITLINE00
62
5
0
LINE
10
564776.215
20
6589757.189
30
0.000
11
564776.214
21
6589757.188
31
0.000
8
0
6
XKITLINE00
62
3
0
LINE
10
564776.214
20
6589757.188
30
0.000
11
564776.212
21
6589757.190
31
0.000
8
0
6
XKITLINE00
62
3
0
LINE
10
564776.213
20
6589757.191
30
0.000
11
564776.215
21
6589757.189
31
0.000
8
0
6
XKITLINE00
62
3
0
LINE
10
564776.212
20
6589757.190
30
0.000
11
564776.213
21
6589757.191
31
0.000
8
0
6
XKITLINE00
62
3
0
LINE
10
564776.213
20
6589757.188
30
0.000
11
564776.214
21
6589757.190
31
0.000
8
0
6
XKITLINE00
62
3
0
LINE
10
564776.213
20
6589757.189
30
0.000
11
564776.214
21
6589757.190
31
0.000
8
0
6
XKITLINE00
62
3
0
LINE
10
564776.212
20
6589757.189
30
0.000
11
564776.214
21
6589757.191
31
0.000
8
0
6
XKITLINE00
62
3
0
LINE
10
564787.151
20
6589698.582
30
0.000
11
564787.151
21
6589698.581
31
0.000
8
0
6
XKITLINE00
62
3
0
LINE
10
564787.151
20
6589698.581
30
0.000
11
564787.149
21
6589698.580
31
0.000
8
0
6
XKITLINE00
62
3
0
LINE
10
564787.149
20
6589698.581
30
0.000
11
564787.151
21
6589698.582
31
0.000
8
0
6
XKITLINE00
62
3
0
LINE
10
564787.149
20
6589698.580
30
0.000
11
564787.149
21
6589698.581
31
0.000
8
0
6
XKITLINE00
62
3
0
LINE
10
564787.151
20
6589698.580
30
0.000
11
564787.150
21
6589698.582
31
0.000
8
0
6
XKITLINE00
62
3
0
LINE
10
564787.151
20
6589698.580
30
0.000
11
564787.149
21
6589698.582
31
0.000
8
0
6
XKITLINE00
62
3
0
LINE
10
564787.150
20
6589698.580
30
0.000
11
564787.149
21
6589698.582
31
0.000
8
0
6
XKITLINE00
62
3
0
LINE
10
564772.688
20
6589759.156
30
0.000
11
564772.696
21
6589759.156
31
0.000
8
0
6
XKITLINE00
62
7
0
LINE
10
564772.720
20
6589759.168
30
0.000
11
564772.696
21
6589759.156
31
0.000
8
0
6
XKITLINE00
62
7
0
CIRCLE
10
564772.720
20
6589759.156
30
0.000
40
0.002
8
0
6
XKITLINE00
62
7
0
LINE
10
564772.729
20
6589759.156
30
0.000
11
564772.722
21
6589759.156
31
0.000
8
0
6
XKITLINE00
62
7
0
LINE
10
564772.725
20
6589759.162
30
0.000
11
564772.725
21
6589759.150
31
0.000
8
0
6
XKITLINE00
62
7
0
LINE
10
564772.701
20
6589759.162
30
0.000
11
564772.703
21
6589759.157
31
0.000
8
0
6
XKITLINE00
62
7
0
LINE
10
564772.703
20
6589759.157
30
0.000
11
564772.714
21
6589759.162
31
0.000
8
0
6
XKITLINE00
62
7
0
LINE
10
564772.714
20
6589759.162
30
0.000
11
564772.711
21
6589759.168
31
0.000
8
0
6
XKITLINE00
62
7
0
LINE
10
564772.711
20
6589759.168
30
0.000
11
564772.701
21
6589759.162
31
0.000
8
0
6
XKITLINE00
62
7
0
LINE
10
564772.654
20
6589759.066
30
0.000
11
564772.666
21
6589759.066
31
0.000
8
0
6
XKITLINE00
62
7
0
LINE
10
564772.666
20
6589759.066
30
0.000
11
564772.660
21
6589759.054
31
0.000
8
0
6
XKITLINE00
62
7
0
LINE
10
564772.660
20
6589759.054
30
0.000
11
564772.654
21
6589759.066
31
0.000
8
0
6
XKITLINE00
62
7
0
LINE
10
564772.482
20
6589759.066
30
0.000
11
564772.494
21
6589759.066
31
0.000
8
0
6
XKITLINE00
62
7
0
LINE
10
564772.494
20
6589759.066
30
0.000
11
564772.488
21
6589759.054
31
0.000
8
0
6
XKITLINE00
62
7
0
LINE
10
564772.488
20
6589759.054
30
0.000
11
564772.482
21
6589759.066
31
0.000
8
0
6
XKITLINE00
62
7
0
LINE
10
564772.740
20
6589759.066
30
0.000
11
564772.752
21
6589759.066
31
0.000
8
0
6
XKITLINE00
62
7
0
LINE
10
564772.752
20
6589759.066
30
0.000
11
564772.746
21
6589759.054
31
0.000
8
0
6
XKITLINE00
62
7
0
LINE
10
564772.746
20
6589759.054
30
0.000
11
564772.740
21
6589759.066
31
0.000
8
0
6
XKITLINE00
62
7
0
LINE
10
564772.998
20
6589759.066
30
0.000
11
564773.010
21
6589759.066
31
0.000
8
0
6
XKITLINE00
62
7
0
LINE
10
564773.010
20
6589759.066
30
0.000
11
564773.004
21
6589759.054
31
0.000
8
0
6
XKITLINE00
62
7
0
LINE
10
564773.004
20
6589759.054
30
0.000
11
564772.998
21
6589759.066
31
0.000
8
0
6
XKITLINE00
62
7
0
LINE
10
564772.912
20
6589759.066
30
0.000
11
564772.924
21
6589759.066
31
0.000
8
0
6
XKITLINE00
62
7
0
LINE
10
564772.924
20
6589759.066
30
0.000
11
564772.918
21
6589759.054
31
0.000
8
0
6
XKITLINE00
62
7
0
LINE
10
564772.918
20
6589759.054
30
0.000
11
564772.912
21
6589759.066
31
0.000
8
0
6
XKITLINE00
62
7
0
LINE
10
564953.010
20
6589681.426
30
0.000
11
564953.022
21
6589681.426
31
0.000
8
0
6
XKITLINE00
62
7
0
LINE
10
564953.022
20
6589681.426
30
0.000
11
564953.016
21
6589681.414
31
0.000
8
0
6
XKITLINE00
62
7
0
LINE
10
564953.016
20
6589681.414
30
0.000
11
564953.010
21
6589681.426
31
0.000
8
0
6
XKITLINE00
62
7
0
LINE
10
564772.568
20
6589759.066
30
0.000
11
564772.580
21
6589759.066
31
0.000
8
0
6
XKITLINE00
62
7
0
LINE
10
564772.580
20
6589759.066
30
0.000
11
564772.574
21
6589759.054
31
0.000
8
0
6
XKITLINE00
62
7
0
LINE
10
564772.574
20
6589759.054
30
0.000
11
564772.568
21
6589759.066
31
0.000
8
0
6
XKITLINE00
62
7
0
LINE
10
564772.826
20
6589759.066
30
0.000
11
564772.838
21
6589759.066
31
0.000
8
0
6
XKITLINE00
62
7
0
LINE
10
564772.838
20
6589759.066
30
0.000
11
564772.832
21
6589759.054
31
0.000
8
0
6
XKITLINE00
62
7
0
LINE
10
564772.832
20
6589759.054
30
0.000
11
564772.826
21
6589759.066
31
0.000
8
0
6
XKITLINE00
62
7
0
LINE
10
564952.838
20
6589681.426
30
0.000
11
564952.850
21
6589681.426
31
0.000
8
0
6
XKITLINE00
62
7
0
LINE
10
564952.850
20
6589681.426
30
0.000
11
564952.844
21
6589681.414
31
0.000
8
0
6
XKITLINE00
62
7
0
LINE
10
564952.844
20
6589681.414
30
0.000
11
564952.838
21
6589681.426
31
0.000
8
0
6
XKITLINE00
62
7
0
LINE
10
564952.924
20
6589681.426
30
0.000
11
564952.936
21
6589681.426
31
0.000
8
0
6
XKITLINE00
62
7
0
LINE
10
564952.936
20
6589681.426
30
0.000
11
564952.930
21
6589681.414
31
0.000
8
0
6
XKITLINE00
62
7
0
LINE
10
564952.930
20
6589681.414
30
0.000
11
564952.924
21
6589681.426
31
0.000
8
0
6
XKITLINE00
62
7
0
LINE
10
564953.735
20
6589700.141
30
0.000
11
564954.351
21
6589700.449
31
0.000
8
0
6
XKITLINE00
62
3
0
LINE
10
564954.351
20
6589699.833
30
0.000
11
564953.735
21
6589700.141
31
0.000
8
0
6
XKITLINE00
62
3
0
CIRCLE
10
564772.746
20
6589759.535
30
0.000
40
0.001
8
0
6
XKITLINE00
62
4
0
LINE
10
564772.747
20
6589759.536
30
0.000
11
564772.748
21
6589759.535
31
0.000
8
0
6
XKITLINE00
62
4
0
LINE
10
564772.748
20
6589759.535
30
0.000
11
564772.747
21
6589759.534
31
0.000
8
0
6
XKITLINE00
62
4
0
LINE
10
564772.747
20
6589759.534
30
0.000
11
564772.746
21
6589759.534
31
0.000
8
0
6
XKITLINE00
62
4
0
LINE
10
564772.746
20
6589759.534
30
0.000
11
564772.745
21
6589759.534
31
0.000
8
0
6
XKITLINE00
62
4
0
LINE
10
564772.745
20
6589759.534
30
0.000
11
564772.745
21
6589759.535
31
0.000
8
0
6
XKITLINE00
62
4
0
LINE
10
564772.745
20
6589759.535
30
0.000
11
564772.745
21
6589759.536
31
0.000
8
0
6
XKITLINE00
62
4
0
LINE
10
564772.745
20
6589759.536
30
0.000
11
564772.746
21
6589759.537
31
0.000
8
0
6
XKITLINE00
62
4
0
LINE
10
564772.746
20
6589759.537
30
0.000
11
564772.747
21
6589759.536
31
0.000
8
0
6
XKITLINE00
62
4
0
LINE
10
564772.747
20
6589759.536
30
0.000
11
564772.747
21
6589759.536
31
0.000
8
0
6
XKITLINE00
62
4
0
CIRCLE
10
564772.746
20
6589759.535
30
0.000
40
0.005
8
0
6
XKITLINE00
62
1
0
LINE
10
564772.848
20
6589759.428
30
0.000
11
564772.848
21
6589759.416
31
0.000
8
0
6
XKITLINE00
62
5
0
LINE
10
564772.848
20
6589759.428
30
0.000
11
564772.840
21
6589759.422
31
0.000
8
0
6
XKITLINE00
62
5
0
LINE
10
564772.840
20
6589759.422
30
0.000
11
564772.848
21
6589759.416
31
0.000
8
0
6
XKITLINE00
62
5
0
LINE
10
564772.635
20
6589759.422
30
0.000
11
564772.647
21
6589759.422
31
0.000
8
0
6
XKITLINE00
62
7
0
LINE
10
564772.647
20
6589759.422
30
0.000
11
564772.641
21
6589759.410
31
0.000
8
0
6
XKITLINE00
62
7
0
LINE
10
564772.641
20
6589759.410
30
0.000
11
564772.635
21
6589759.422
31
0.000
8
0
6
XKITLINE00
62
7
0
LINE
10
564772.529
20
6589759.422
30
0.000
11
564772.541
21
6589759.422
31
0.000
8
0
6
XKITLINE00
62
7
0
LINE
10
564772.541
20
6589759.422
30
0.000
11
564772.535
21
6589759.410
31
0.000
8
0
6
XKITLINE00
62
7
0
LINE
10
564772.535
20
6589759.410
30
0.000
11
564772.529
21
6589759.422
31
0.000
8
0
6
XKITLINE00
62
7
0
LINE
10
564772.752
20
6589759.316
30
0.000
11
564772.740
21
6589759.316
31
0.000
8
0
6
XKITLINE00
62
7
0
LINE
10
564772.740
20
6589759.316
30
0.000
11
564772.746
21
6589759.328
31
0.000
8
0
6
XKITLINE00
62
7
0
LINE
10
564772.746
20
6589759.328
30
0.000
11
564772.752
21
6589759.316
31
0.000
8
0
6
XKITLINE00
62
7
0
LINE
10
564772.740
20
6589759.375
30
0.000
11
564772.752
21
6589759.375
31
0.000
8
0
6
XKITLINE00
62
7
0
LINE
10
564772.752
20
6589759.375
30
0.000
11
564772.746
21
6589759.363
31
0.000
8
0
6
XKITLINE00
62
7
0
LINE
10
564772.746
20
6589759.363
30
0.000
11
564772.740
21
6589759.375
31
0.000
8
0
6
XKITLINE00
62
7
0
LINE
10
564772.794
20
6589759.303
30
0.000
11
564772.794
21
6589759.306
31
0.000
8
0
6
XKITLINE00
62
7
0
LINE
10
564772.791
20
6589759.302
30
0.000
11
564772.791
21
6589759.308
31
0.000
8
0
6
XKITLINE00
62
7
0
LINE
10
564772.788
20
6589759.299
30
0.000
11
564772.788
21
6589759.311
31
0.000
8
0
6
XKITLINE00
62
7
0
LINE
10
564772.746
20
6589759.305
30
0.000
11
564772.764
21
6589759.305
31
0.000
8
0
6
XKITLINE00
62
7
0
LINE
10
564772.746
20
6589759.299
30
0.000
11
564772.746
21
6589759.311
31
0.000
8
0
6
XKITLINE00
62
7
0
LINE
10
564772.758
20
6589759.299
30
0.000
11
564772.764
21
6589759.305
31
0.000
8
0
6
XKITLINE00
62
7
0
LINE
10
564772.764
20
6589759.305
30
0.000
11
564772.758
21
6589759.311
31
0.000
8
0
6
XKITLINE00
62
7
0
LINE
10
564772.758
20
6589759.311
30
0.000
11
564772.758
21
6589759.311
31
0.000
8
0
6
XKITLINE00
62
7
0
LINE
10
564772.770
20
6589759.305
30
0.000
11
564772.776
21
6589759.311
31
0.000
8
0
6
XKITLINE00
62
7
0
LINE
10
564772.776
20
6589759.311
30
0.000
11
564772.776
21
6589759.311
31
0.000
8
0
6
XKITLINE00
62
7
0
LINE
10
564772.770
20
6589759.305
30
0.000
11
564772.776
21
6589759.299
31
0.000
8
0
6
XKITLINE00
62
7
0
LINE
10
564772.770
20
6589759.305
30
0.000
11
564772.788
21
6589759.305
31
0.000
8
0
6
XKITLINE00
62
7
0
LINE
10
564772.746
20
6589759.215
30
0.000
11
564772.746
21
6589759.227
31
0.000
8
0
6
XKITLINE00
62
4
0
CIRCLE
10
564772.746
20
6589759.245
30
0.000
40
0.018
8
0
6
XKITLINE00
62
4
0
CIRCLE
10
564772.746
20
6589759.269
30
0.000
40
0.018
8
0
6
XKITLINE00
62
4
0
LINE
10
564772.746
20
6589759.287
30
0.000
11
564772.746
21
6589759.299
31
0.000
8
0
6
XKITLINE00
62
4
0
LINE
10
564772.780
20
6589759.468
30
0.000
11
564772.780
21
6589759.470
31
0.000
8
0
6
XKITLINE00
62
7
0
LINE
10
564772.778
20
6589759.466
30
0.000
11
564772.778
21
6589759.472
31
0.000
8
0
6
XKITLINE00
62
7
0
LINE
10
564772.775
20
6589759.464
30
0.000
11
564772.775
21
6589759.474
31
0.000
8
0
6
XKITLINE00
62
7
0
LINE
10
564772.775
20
6589759.469
30
0.000
11
564772.770
21
6589759.469
31
0.000
8
0
6
XKITLINE00
62
7
0
LINE
10
564772.675
20
6589759.468
30
0.000
11
564772.675
21
6589759.470
31
0.000
8
0
6
XKITLINE00
62
7
0
LINE
10
564772.672
20
6589759.466
30
0.000
11
564772.672
21
6589759.472
31
0.000
8
0
6
XKITLINE00
62
7
0
LINE
10
564772.670
20
6589759.464
30
0.000
11
564772.670
21
6589759.474
31
0.000
8
0
6
XKITLINE00
62
7
0
LINE
10
564772.670
20
6589759.469
30
0.000
11
564772.664
21
6589759.469
31
0.000
8
0
6
XKITLINE00
62
7
0
LINE
10
564772.780
20
6589759.397
30
0.000
11
564772.780
21
6589759.400
31
0.000
8
0
6
XKITLINE00
62
7
0
LINE
10
564772.778
20
6589759.395
30
0.000
11
564772.778
21
6589759.402
31
0.000
8
0
6
XKITLINE00
62
7
0
LINE
10
564772.775
20
6589759.393
30
0.000
11
564772.775
21
6589759.403
31
0.000
8
0
6
XKITLINE00
62
7
0
LINE
10
564772.775
20
6589759.398
30
0.000
11
564772.770
21
6589759.398
31
0.000
8
0
6
XKITLINE00
62
7
0
LINE
10
564772.874
20
6589759.468
30
0.000
11
564772.874
21
6589759.470
31
0.000
8
0
6
XKITLINE00
62
7
0
LINE
10
564772.871
20
6589759.466
30
0.000
11
564772.871
21
6589759.472
31
0.000
8
0
6
XKITLINE00
62
7
0
LINE
10
564772.869
20
6589759.464
30
0.000
11
564772.869
21
6589759.474
31
0.000
8
0
6
XKITLINE00
62
7
0
LINE
10
564772.869
20
6589759.469
30
0.000
11
564772.863
21
6589759.469
31
0.000
8
0
6
XKITLINE00
62
7
0
LINE
10
564772.569
20
6589759.468
30
0.000
11
564772.569
21
6589759.470
31
0.000
8
0
6
XKITLINE00
62
7
0
LINE
10
564772.567
20
6589759.466
30
0.000
11
564772.567
21
6589759.472
31
0.000
8
0
6
XKITLINE00
62
7
0
LINE
10
564772.564
20
6589759.464
30
0.000
11
564772.564
21
6589759.474
31
0.000
8
0
6
XKITLINE00
62
7
0
LINE
10
564772.564
20
6589759.469
30
0.000
11
564772.559
21
6589759.469
31
0.000
8
0
6
XKITLINE00
62
7
0
LINE
10
564772.746
20
6589759.422
30
0.000
11
564772.746
21
6589759.446
31
0.000
8
0
6
XKITLINE00
62
7
0
LINE
10
564772.752
20
6589759.446
30
0.000
11
564772.752
21
6589759.422
31
0.000
8
0
6
XKITLINE00
62
7
0
LINE
10
564772.740
20
6589759.446
30
0.000
11
564772.752
21
6589759.446
31
0.000
8
0
6
XKITLINE00
62
7
0
LINE
10
564772.740
20
6589759.422
30
0.000
11
564772.740
21
6589759.446
31
0.000
8
0
6
XKITLINE00
62
7
0
LINE
10
564772.752
20
6589759.422
30
0.000
11
564772.740
21
6589759.422
31
0.000
8
0
6
XKITLINE00
62
7
0
ARC
10
564772.641
20
6589759.497
30
0.000
40
0.011
50
28.073
51
151.928
8
0
6
XKITLINE00
62
7
0
ARC
10
564772.641
20
6589759.496
30
0.000
40
0.011
50
-150.960
51
-29.040
8
0
6
XKITLINE00
62
7
0
LINE
10
564772.631
20
6589759.512
30
0.000
11
564772.651
21
6589759.512
31
0.000
8
0
6
XKITLINE00
62
7
0
LINE
10
564772.641
20
6589759.512
30
0.000
11
564772.641
21
6589759.508
31
0.000
8
0
6
XKITLINE00
62
7
0
LINE
10
564772.639
20
6589759.486
30
0.000
11
564772.643
21
6589759.486
31
0.000
8
0
6
XKITLINE00
62
3
0
LINE
10
564772.643
20
6589759.486
30
0.000
11
564772.643
21
6589759.507
31
0.000
8
0
6
XKITLINE00
62
3
0
LINE
10
564772.643
20
6589759.507
30
0.000
11
564772.639
21
6589759.507
31
0.000
8
0
6
XKITLINE00
62
3
0
LINE
10
564772.639
20
6589759.507
30
0.000
11
564772.639
21
6589759.486
31
0.000
8
0
6
XKITLINE00
62
3
0
ARC
10
564772.535
20
6589759.497
30
0.000
40
0.011
50
28.073
51
151.928
8
0
6
XKITLINE00
62
7
0
ARC
10
564772.535
20
6589759.496
30
0.000
40
0.011
50
-150.960
51
-29.040
8
0
6
XKITLINE00
62
7
0
LINE
10
564772.525
20
6589759.512
30
0.000
11
564772.545
21
6589759.512
31
0.000
8
0
6
XKITLINE00
62
7
0
LINE
10
564772.535
20
6589759.512
30
0.000
11
564772.535
21
6589759.508
31
0.000
8
0
6
XKITLINE00
62
7
0
LINE
10
564772.533
20
6589759.486
30
0.000
11
564772.537
21
6589759.486
31
0.000
8
0
6
XKITLINE00
62
3
0
LINE
10
564772.537
20
6589759.486
30
0.000
11
564772.537
21
6589759.507
31
0.000
8
0
6
XKITLINE00
62
3
0
LINE
10
564772.537
20
6589759.507
30
0.000
11
564772.533
21
6589759.507
31
0.000
8
0
6
XKITLINE00
62
3
0
LINE
10
564772.533
20
6589759.507
30
0.000
11
564772.533
21
6589759.486
31
0.000
8
0
6
XKITLINE00
62
3
0
ARC
10
564772.746
20
6589759.497
30
0.000
40
0.011
50
28.073
51
151.928
8
0
6
XKITLINE00
62
7
0
ARC
10
564772.746
20
6589759.496
30
0.000
40
0.011
50
-150.960
51
-29.040
8
0
6
XKITLINE00
62
7
0
LINE
10
564772.736
20
6589759.512
30
0.000
11
564772.756
21
6589759.512
31
0.000
8
0
6
XKITLINE00
62
7
0
LINE
10
564772.746
20
6589759.512
30
0.000
11
564772.746
21
6589759.508
31
0.000
8
0
6
XKITLINE00
62
7
0
LINE
10
564772.744
20
6589759.486
30
0.000
11
564772.748
21
6589759.486
31
0.000
8
0
6
XKITLINE00
62
3
0
LINE
10
564772.748
20
6589759.486
30
0.000
11
564772.748
21
6589759.507
31
0.000
8
0
6
XKITLINE00
62
3
0
LINE
10
564772.748
20
6589759.507
30
0.000
11
564772.744
21
6589759.507
31
0.000
8
0
6
XKITLINE00
62
3
0
LINE
10
564772.744
20
6589759.507
30
0.000
11
564772.744
21
6589759.486
31
0.000
8
0
6
XKITLINE00
62
3
0
ARC
10
564772.840
20
6589759.501
30
0.000
40
0.011
50
28.073
51
151.928
8
0
6
XKITLINE00
62
7
0
ARC
10
564772.840
20
6589759.500
30
0.000
40
0.011
50
-151.927
51
-28.072
8
0
6
XKITLINE00
62
7
0
LINE
10
564772.840
20
6589759.516
30
0.000
11
564772.840
21
6589759.512
31
0.000
8
0
6
XKITLINE00
62
7
0
LINE
10
564772.830
20
6589759.516
30
0.000
11
564772.850
21
6589759.516
31
0.000
8
0
6
XKITLINE00
62
7
0
LINE
10
564772.830
20
6589759.498
30
0.000
11
564772.850
21
6589759.498
31
0.000
8
0
6
XKITLINE00
62
1
0
LINE
10
564772.850
20
6589759.498
30
0.000
11
564772.850
21
6589759.502
31
0.000
8
0
6
XKITLINE00
62
1
0
LINE
10
564772.850
20
6589759.502
30
0.000
11
564772.830
21
6589759.502
31
0.000
8
0
6
XKITLINE00
62
1
0
LINE
10
564772.830
20
6589759.502
30
0.000
11
564772.830
21
6589759.498
31
0.000
8
0
6
XKITLINE00
62
1
0
ARC
10
564772.762
20
6589759.398
30
0.000
40
0.007
50
-61.928
51
61.928
8
0
6
XKITLINE00
62
7
0
ARC
10
564772.761
20
6589759.398
30
0.000
40
0.007
50
118.072
51
-118.072
8
0
6
XKITLINE00
62
7
0
LINE
10
564772.760
20
6589759.405
30
0.000
11
564772.760
21
6589759.392
31
0.000
8
0
6
XKITLINE00
62
1
0
LINE
10
564772.760
20
6589759.392
30
0.000
11
564772.763
21
6589759.392
31
0.000
8
0
6
XKITLINE00
62
1
0
LINE
10
564772.763
20
6589759.392
30
0.000
11
564772.763
21
6589759.405
31
0.000
8
0
6
XKITLINE00
62
1
0
LINE
10
564772.763
20
6589759.405
30
0.000
11
564772.760
21
6589759.405
31
0.000
8
0
6
XKITLINE00
62
1
0
ARC
10
564772.856
20
6589759.469
30
0.000
40
0.007
50
-61.928
51
61.928
8
0
6
XKITLINE00
62
7
0
ARC
10
564772.855
20
6589759.469
30
0.000
40
0.007
50
118.072
51
-118.072
8
0
6
XKITLINE00
62
7
0
LINE
10
564772.854
20
6589759.475
30
0.000
11
564772.854
21
6589759.462
31
0.000
8
0
6
XKITLINE00
62
1
0
LINE
10
564772.854
20
6589759.463
30
0.000
11
564772.856
21
6589759.463
31
0.000
8
0
6
XKITLINE00
62
1
0
LINE
10
564772.856
20
6589759.462
30
0.000
11
564772.856
21
6589759.475
31
0.000
8
0
6
XKITLINE00
62
1
0
LINE
10
564772.856
20
6589759.475
30
0.000
11
564772.854
21
6589759.475
31
0.000
8
0
6
XKITLINE00
62
1
0
ARC
10
564772.551
20
6589759.469
30
0.000
40
0.007
50
-61.928
51
61.928
8
0
6
XKITLINE00
62
7
0
ARC
10
564772.550
20
6589759.469
30
0.000
40
0.007
50
118.072
51
-118.072
8
0
6
XKITLINE00
62
7
0
LINE
10
564772.549
20
6589759.475
30
0.000
11
564772.549
21
6589759.462
31
0.000
8
0
6
XKITLINE00
62
1
0
LINE
10
564772.549
20
6589759.463
30
0.000
11
564772.552
21
6589759.463
31
0.000
8
0
6
XKITLINE00
62
1
0
LINE
10
564772.552
20
6589759.462
30
0.000
11
564772.552
21
6589759.475
31
0.000
8
0
6
XKITLINE00
62
1
0
LINE
10
564772.552
20
6589759.475
30
0.000
11
564772.549
21
6589759.475
31
0.000
8
0
6
XKITLINE00
62
1
0
ARC
10
564772.762
20
6589759.469
30
0.000
40
0.007
50
-61.928
51
61.928
8
0
6
XKITLINE00
62
7
0
ARC
10
564772.761
20
6589759.469
30
0.000
40
0.007
50
118.072
51
-118.072
8
0
6
XKITLINE00
62
7
0
LINE
10
564772.760
20
6589759.475
30
0.000
11
564772.760
21
6589759.462
31
0.000
8
0
6
XKITLINE00
62
1
0
LINE
10
564772.760
20
6589759.463
30
0.000
11
564772.763
21
6589759.463
31
0.000
8
0
6
XKITLINE00
62
1
0
LINE
10
564772.763
20
6589759.462
30
0.000
11
564772.763
21
6589759.475
31
0.000
8
0
6
XKITLINE00
62
1
0
LINE
10
564772.763
20
6589759.475
30
0.000
11
564772.760
21
6589759.475
31
0.000
8
0
6
XKITLINE00
62
1
0
ARC
10
564772.656
20
6589759.469
30
0.000
40
0.007
50
-61.928
51
61.928
8
0
6
XKITLINE00
62
7
0
ARC
10
564772.656
20
6589759.469
30
0.000
40
0.007
50
118.072
51
-118.072
8
0
6
XKITLINE00
62
7
0
LINE
10
564772.655
20
6589759.475
30
0.000
11
564772.655
21
6589759.462
31
0.000
8
0
6
XKITLINE00
62
1
0
LINE
10
564772.655
20
6589759.463
30
0.000
11
564772.657
21
6589759.463
31
0.000
8
0
6
XKITLINE00
62
1
0
LINE
10
564772.657
20
6589759.462
30
0.000
11
564772.657
21
6589759.475
31
0.000
8
0
6
XKITLINE00
62
1
0
LINE
10
564772.657
20
6589759.475
30
0.000
11
564772.655
21
6589759.475
31
0.000
8
0
6
XKITLINE00
62
1
0
LINE
10
564711.686
20
6589797.925
30
0.000
11
564709.926
21
6589801.005
31
0.000
8
0
6
XKITLINE00
62
7
0
LINE
10
564708.146
20
6589797.905
30
0.000
11
564709.951
21
6589801.030
31
0.000
8
0
6
XKITLINE00
62
7
0
LINE
10
564708.166
20
6589797.925
30
0.000
11
564711.686
21
6589797.925
31
0.000
8
0
6
XKITLINE00
62
7
0
LINE
10
564707.946
20
6589797.485
30
0.000
11
564711.906
21
6589797.485
31
0.000
8
0
6
XKITLINE00
62
7
0
LINE
10
564707.946
20
6589801.445
30
0.000
11
564707.946
21
6589797.485
31
0.000
8
0
6
XKITLINE00
62
7
0
LINE
10
564711.906
20
6589797.485
30
0.000
11
564711.906
21
6589801.445
31
0.000
8
0
6
XKITLINE00
62
7
0
LINE
10
564711.906
20
6589801.445
30
0.000
11
564707.946
21
6589801.445
31
0.000
8
0
6
XKITLINE00
62
7
0
LINE
10
564741.772
20
6589791.276
30
0.000
11
564740.012
21
6589794.356
31
0.000
8
0
6
XKITLINE00
62
7
0
LINE
10
564738.232
20
6589791.257
30
0.000
11
564740.037
21
6589794.382
31
0.000
8
0
6
XKITLINE00
62
7
0
LINE
10
564738.252
20
6589791.276
30
0.000
11
564741.772
21
6589791.276
31
0.000
8
0
6
XKITLINE00
62
7
0
LINE
10
564738.032
20
6589790.836
30
0.000
11
564741.992
21
6589790.836
31
0.000
8
0
6
XKITLINE00
62
7
0
LINE
10
564738.032
20
6589794.796
30
0.000
11
564738.032
21
6589790.836
31
0.000
8
0
6
XKITLINE00
62
7
0
LINE
10
564741.992
20
6589790.836
30
0.000
11
564741.992
21
6589794.796
31
0.000
8
0
6
XKITLINE00
62
7
0
LINE
10
564741.992
20
6589794.796
30
0.000
11
564738.032
21
6589794.796
31
0.000
8
0
6
XKITLINE00
62
7
0
LINE
10
564775.819
20
6589815.796
30
0.000
11
564774.059
21
6589818.876
31
0.000
8
0
6
XKITLINE00
62
7
0
LINE
10
564772.279
20
6589815.776
30
0.000
11
564774.084
21
6589818.901
31
0.000
8
0
6
XKITLINE00
62
7
0
LINE
10
564772.299
20
6589815.796
30
0.000
11
564775.819
21
6589815.796
31
0.000
8
0
6
XKITLINE00
62
7
0
LINE
10
564772.079
20
6589815.356
30
0.000
11
564776.039
21
6589815.356
31
0.000
8
0
6
XKITLINE00
62
7
0
LINE
10
564772.079
20
6589819.316
30
0.000
11
564772.079
21
6589815.356
31
0.000
8
0
6
XKITLINE00
62
7
0
LINE
10
564776.039
20
6589815.356
30
0.000
11
564776.039
21
6589819.316
31
0.000
8
0
6
XKITLINE00
62
7
0
LINE
10
564776.039
20
6589819.316
30
0.000
11
564772.079
21
6589819.316
31
0.000
8
0
6
XKITLINE00
62
7
0
LINE
10
564900.125
20
6589651.714
30
0.000
11
564900.125
21
6589647.754
31
0.000
8
0
6
XKITLINE00
62
7
0
LINE
10
564900.125
20
6589647.754
30
0.000
11
564904.085
21
6589647.754
31
0.000
8
0
6
XKITLINE00
62
7
0
LINE
10
564904.085
20
6589647.754
30
0.000
11
564904.085
21
6589651.714
31
0.000
8
0
6
XKITLINE00
62
7
0
LINE
10
564904.085
20
6589651.714
30
0.000
11
564900.125
21
6589651.714
31
0.000
8
0
6
XKITLINE00
62
7
0
LINE
10
564844.399
20
6589737.468
30
0.000
11
564844.399
21
6589733.508
31
0.000
8
0
6
XKITLINE00
62
7
0
LINE
10
564844.399
20
6589733.508
30
0.000
11
564848.359
21
6589733.508
31
0.000
8
0
6
XKITLINE00
62
7
0
LINE
10
564848.359
20
6589733.508
30
0.000
11
564848.359
21
6589737.468
31
0.000
8
0
6
XKITLINE00
62
7
0
LINE
10
564848.359
20
6589737.468
30
0.000
11
564844.399
21
6589737.468
31
0.000
8
0
6
XKITLINE00
62
7
0
LINE
10
564838.282
20
6589709.039
30
0.000
11
564838.282
21
6589705.079
31
0.000
8
0
6
XKITLINE00
62
7
0
LINE
10
564838.282
20
6589705.079
30
0.000
11
564842.242
21
6589705.079
31
0.000
8
0
6
XKITLINE00
62
7
0
LINE
10
564842.242
20
6589705.079
30
0.000
11
564842.242
21
6589709.039
31
0.000
8
0
6
XKITLINE00
62
7
0
LINE
10
564842.242
20
6589709.039
30
0.000
11
564838.282
21
6589709.039
31
0.000
8
0
6
XKITLINE00
62
7
0
LINE
10
564785.172
20
6589700.562
30
0.000
11
564785.172
21
6589696.602
31
0.000
8
0
6
XKITLINE00
62
7
0
LINE
10
564785.172
20
6589696.602
30
0.000
11
564789.132
21
6589696.602
31
0.000
8
0
6
XKITLINE00
62
7
0
LINE
10
564789.132
20
6589696.602
30
0.000
11
564789.132
21
6589700.562
31
0.000
8
0
6
XKITLINE00
62
7
0
LINE
10
564789.132
20
6589700.562
30
0.000
11
564785.172
21
6589700.562
31
0.000
8
0
6
XKITLINE00
62
7
0
LINE
10
564830.883
20
6589680.390
30
0.000
11
564830.883
21
6589676.430
31
0.000
8
0
6
XKITLINE00
62
7
0
LINE
10
564830.883
20
6589676.430
30
0.000
11
564834.843
21
6589676.430
31
0.000
8
0
6
XKITLINE00
62
7
0
LINE
10
564834.843
20
6589676.430
30
0.000
11
564834.843
21
6589680.390
31
0.000
8
0
6
XKITLINE00
62
7
0
LINE
10
564834.843
20
6589680.390
30
0.000
11
564830.883
21
6589680.390
31
0.000
8
0
6
XKITLINE00
62
7
0
LINE
10
564934.805
20
6589637.871
30
0.000
11
564934.805
21
6589633.911
31
0.000
8
0
6
XKITLINE00
62
7
0
LINE
10
564934.805
20
6589633.911
30
0.000
11
564938.765
21
6589633.911
31
0.000
8
0
6
XKITLINE00
62
7
0
LINE
10
564938.765
20
6589633.911
30
0.000
11
564938.765
21
6589637.871
31
0.000
8
0
6
XKITLINE00
62
7
0
LINE
10
564938.765
20
6589637.871
30
0.000
11
564934.805
21
6589637.871
31
0.000
8
0
6
XKITLINE00
62
7
0
LINE
10
564803.485
20
6589784.281
30
0.000
11
564803.485
21
6589780.321
31
0.000
8
0
6
XKITLINE00
62
7
0
LINE
10
564803.485
20
6589780.321
30
0.000
11
564807.445
21
6589780.321
31
0.000
8
0
6
XKITLINE00
62
7
0
LINE
10
564807.445
20
6589780.321
30
0.000
11
564807.445
21
6589784.281
31
0.000
8
0
6
XKITLINE00
62
7
0
LINE
10
564807.445
20
6589784.281
30
0.000
11
564803.485
21
6589784.281
31
0.000
8
0
6
XKITLINE00
62
7
0
LINE
10
564877.436
20
6589658.483
30
0.000
11
564875.676
21
6589661.563
31
0.000
8
0
6
XKITLINE00
62
7
0
LINE
10
564873.896
20
6589658.464
30
0.000
11
564875.701
21
6589661.589
31
0.000
8
0
6
XKITLINE00
62
7
0
LINE
10
564873.916
20
6589658.483
30
0.000
11
564877.436
21
6589658.483
31
0.000
8
0
6
XKITLINE00
62
7
0
LINE
10
564873.696
20
6589658.043
30
0.000
11
564877.656
21
6589658.043
31
0.000
8
0
6
XKITLINE00
62
7
0
LINE
10
564873.696
20
6589662.003
30
0.000
11
564873.696
21
6589658.043
31
0.000
8
0
6
XKITLINE00
62
7
0
LINE
10
564877.656
20
6589658.043
30
0.000
11
564877.656
21
6589662.003
31
0.000
8
0
6
XKITLINE00
62
7
0
LINE
10
564877.656
20
6589662.003
30
0.000
11
564873.696
21
6589662.003
31
0.000
8
0
6
XKITLINE00
62
7
0
LINE
10
564768.873
20
6589785.288
30
0.000
11
564767.113
21
6589788.368
31
0.000
8
0
6
XKITLINE00
62
7
0
LINE
10
564765.333
20
6589785.268
30
0.000
11
564767.139
21
6589788.393
31
0.000
8
0
6
XKITLINE00
62
7
0
LINE
10
564765.353
20
6589785.288
30
0.000
11
564768.873
21
6589785.288
31
0.000
8
0
6
XKITLINE00
62
7
0
LINE
10
564765.133
20
6589784.848
30
0.000
11
564769.093
21
6589784.848
31
0.000
8
0
6
XKITLINE00
62
7
0
LINE
10
564765.133
20
6589788.808
30
0.000
11
564765.133
21
6589784.848
31
0.000
8
0
6
XKITLINE00
62
7
0
LINE
10
564769.093
20
6589784.848
30
0.000
11
564769.093
21
6589788.808
31
0.000
8
0
6
XKITLINE00
62
7
0
LINE
10
564769.093
20
6589788.808
30
0.000
11
564765.133
21
6589788.808
31
0.000
8
0
6
XKITLINE00
62
7
0
LINE
10
564762.068
20
6589783.994
30
0.000
11
564761.817
21
6589784.495
31
0.000
8
0
6
XKITLINE00
62
7
0
LINE
10
564762.412
20
6589785.653
30
0.000
11
564763.351
21
6589783.775
31
0.000
8
0
6
XKITLINE00
62
7
0
LINE
10
564762.177
20
6589784.949
30
0.000
11
564762.647
21
6589784.010
31
0.000
8
0
6
XKITLINE00
62
7
0
LINE
10
564763.508
20
6589785.027
30
0.000
11
564762.882
21
6589784.714
31
0.000
8
0
6
XKITLINE00
62
7
0
CIRCLE
10
564762.725
20
6589784.636
30
0.000
40
1.225
8
0
6
XKITLINE00
62
7
0
LINE
10
564763.821
20
6589785.184
30
0.000
11
564767.108
21
6589786.827
31
0.000
8
0
6
XKITLINE00
62
7
0
LINE
10
564763.545
20
6589785.124
30
0.000
11
564763.552
21
6589785.126
31
0.000
8
0
6
XKITLINE00
62
7
0
LINE
10
564763.552
20
6589785.126
30
0.000
11
564763.559
21
6589785.128
31
0.000
8
0
6
XKITLINE00
62
7
0
LINE
10
564763.559
20
6589785.128
30
0.000
11
564763.565
21
6589785.128
31
0.000
8
0
6
XKITLINE00
62
7
0
LINE
10
564763.565
20
6589785.128
30
0.000
11
564763.572
21
6589785.129
31
0.000
8
0
6
XKITLINE00
62
7
0
LINE
10
564763.572
20
6589785.129
30
0.000
11
564763.579
21
6589785.128
31
0.000
8
0
6
XKITLINE00
62
7
0
LINE
10
564763.579
20
6589785.128
30
0.000
11
564763.586
21
6589785.127
31
0.000
8
0
6
XKITLINE00
62
7
0
LINE
10
564763.586
20
6589785.127
30
0.000
11
564763.592
21
6589785.125
31
0.000
8
0
6
XKITLINE00
62
7
0
LINE
10
564763.592
20
6589785.125
30
0.000
11
564763.599
21
6589785.123
31
0.000
8
0
6
XKITLINE00
62
7
0
LINE
10
564763.599
20
6589785.123
30
0.000
11
564763.605
21
6589785.119
31
0.000
8
0
6
XKITLINE00
62
7
0
LINE
10
564763.605
20
6589785.119
30
0.000
11
564763.611
21
6589785.116
31
0.000
8
0
6
XKITLINE00
62
7
0
LINE
10
564763.611
20
6589785.116
30
0.000
11
564763.616
21
6589785.111
31
0.000
8
0
6
XKITLINE00
62
7
0
LINE
10
564763.616
20
6589785.111
30
0.000
11
564763.621
21
6589785.107
31
0.000
8
0
6
XKITLINE00
62
7
0
LINE
10
564763.621
20
6589785.107
30
0.000
11
564763.626
21
6589785.102
31
0.000
8
0
6
XKITLINE00
62
7
0
LINE
10
564763.626
20
6589785.102
30
0.000
11
564763.630
21
6589785.096
31
0.000
8
0
6
XKITLINE00
62
7
0
LINE
10
564763.630
20
6589785.096
30
0.000
11
564763.633
21
6589785.090
31
0.000
8
0
6
XKITLINE00
62
7
0
LINE
10
564763.633
20
6589785.090
30
0.000
11
564763.636
21
6589785.084
31
0.000
8
0
6
XKITLINE00
62
7
0
LINE
10
564763.636
20
6589785.084
30
0.000
11
564763.638
21
6589785.077
31
0.000
8
0
6
XKITLINE00
62
7
0
LINE
10
564763.638
20
6589785.077
30
0.000
11
564763.639
21
6589785.070
31
0.000
8
0
6
XKITLINE00
62
7
0
LINE
10
564763.639
20
6589785.070
30
0.000
11
564763.640
21
6589785.064
31
0.000
8
0
6
XKITLINE00
62
7
0
LINE
10
564763.640
20
6589785.064
30
0.000
11
564763.640
21
6589785.057
31
0.000
8
0
6
XKITLINE00
62
7
0
LINE
10
564763.640
20
6589785.057
30
0.000
11
564763.640
21
6589785.050
31
0.000
8
0
6
XKITLINE00
62
7
0
LINE
10
564763.640
20
6589785.050
30
0.000
11
564763.639
21
6589785.043
31
0.000
8
0
6
XKITLINE00
62
7
0
LINE
10
564763.639
20
6589785.043
30
0.000
11
564763.637
21
6589785.036
31
0.000
8
0
6
XKITLINE00
62
7
0
LINE
10
564763.637
20
6589785.036
30
0.000
11
564763.634
21
6589785.030
31
0.000
8
0
6
XKITLINE00
62
7
0
LINE
10
564763.634
20
6589785.030
30
0.000
11
564763.631
21
6589785.024
31
0.000
8
0
6
XKITLINE00
62
7
0
LINE
10
564763.631
20
6589785.024
30
0.000
11
564763.627
21
6589785.018
31
0.000
8
0
6
XKITLINE00
62
7
0
LINE
10
564763.627
20
6589785.018
30
0.000
11
564763.623
21
6589785.013
31
0.000
8
0
6
XKITLINE00
62
7
0
LINE
10
564763.623
20
6589785.013
30
0.000
11
564763.618
21
6589785.008
31
0.000
8
0
6
XKITLINE00
62
7
0
LINE
10
564763.618
20
6589785.008
30
0.000
11
564763.613
21
6589785.003
31
0.000
8
0
6
XKITLINE00
62
7
0
LINE
10
564763.613
20
6589785.003
30
0.000
11
564763.608
21
6589784.999
31
0.000
8
0
6
XKITLINE00
62
7
0
LINE
10
564763.608
20
6589784.999
30
0.000
11
564763.602
21
6589784.996
31
0.000
8
0
6
XKITLINE00
62
7
0
LINE
10
564763.602
20
6589784.996
30
0.000
11
564763.595
21
6589784.993
31
0.000
8
0
6
XKITLINE00
62
7
0
LINE
10
564763.595
20
6589784.993
30
0.000
11
564763.589
21
6589784.991
31
0.000
8
0
6
XKITLINE00
62
7
0
LINE
10
564763.589
20
6589784.991
30
0.000
11
564763.582
21
6589784.990
31
0.000
8
0
6
XKITLINE00
62
7
0
LINE
10
564763.582
20
6589784.990
30
0.000
11
564763.575
21
6589784.989
31
0.000
8
0
6
XKITLINE00
62
7
0
LINE
10
564763.575
20
6589784.989
30
0.000
11
564763.568
21
6589784.989
31
0.000
8
0
6
XKITLINE00
62
7
0
LINE
10
564763.568
20
6589784.989
30
0.000
11
564763.562
21
6589784.989
31
0.000
8
0
6
XKITLINE00
62
7
0
LINE
10
564763.562
20
6589784.989
30
0.000
11
564763.555
21
6589784.990
31
0.000
8
0
6
XKITLINE00
62
7
0
LINE
10
564763.555
20
6589784.990
30
0.000
11
564763.548
21
6589784.992
31
0.000
8
0
6
XKITLINE00
62
7
0
LINE
10
564763.548
20
6589784.992
30
0.000
11
564763.542
21
6589784.995
31
0.000
8
0
6
XKITLINE00
62
7
0
LINE
10
564763.542
20
6589784.995
30
0.000
11
564763.536
21
6589784.998
31
0.000
8
0
6
XKITLINE00
62
7
0
LINE
10
564763.536
20
6589784.998
30
0.000
11
564763.530
21
6589785.001
31
0.000
8
0
6
XKITLINE00
62
7
0
LINE
10
564763.530
20
6589785.001
30
0.000
11
564763.524
21
6589785.006
31
0.000
8
0
6
XKITLINE00
62
7
0
LINE
10
564763.524
20
6589785.006
30
0.000
11
564763.519
21
6589785.010
31
0.000
8
0
6
XKITLINE00
62
7
0
LINE
10
564763.519
20
6589785.010
30
0.000
11
564763.515
21
6589785.016
31
0.000
8
0
6
XKITLINE00
62
7
0
LINE
10
564763.515
20
6589785.016
30
0.000
11
564763.511
21
6589785.021
31
0.000
8
0
6
XKITLINE00
62
7
0
LINE
10
564763.511
20
6589785.021
30
0.000
11
564763.508
21
6589785.027
31
0.000
8
0
6
XKITLINE00
62
7
0
LINE
10
564763.508
20
6589785.027
30
0.000
11
564763.505
21
6589785.034
31
0.000
8
0
6
XKITLINE00
62
7
0
LINE
10
564763.505
20
6589785.034
30
0.000
11
564763.503
21
6589785.040
31
0.000
8
0
6
XKITLINE00
62
7
0
LINE
10
564763.503
20
6589785.040
30
0.000
11
564763.501
21
6589785.047
31
0.000
8
0
6
XKITLINE00
62
7
0
LINE
10
564763.501
20
6589785.047
30
0.000
11
564763.500
21
6589785.054
31
0.000
8
0
6
XKITLINE00
62
7
0
LINE
10
564763.500
20
6589785.054
30
0.000
11
564763.500
21
6589785.060
31
0.000
8
0
6
XKITLINE00
62
7
0
LINE
10
564763.500
20
6589785.060
30
0.000
11
564763.501
21
6589785.067
31
0.000
8
0
6
XKITLINE00
62
7
0
LINE
10
564763.501
20
6589785.067
30
0.000
11
564763.502
21
6589785.074
31
0.000
8
0
6
XKITLINE00
62
7
0
LINE
10
564763.502
20
6589785.074
30
0.000
11
564763.504
21
6589785.081
31
0.000
8
0
6
XKITLINE00
62
7
0
LINE
10
564763.504
20
6589785.081
30
0.000
11
564763.506
21
6589785.087
31
0.000
8
0
6
XKITLINE00
62
7
0
LINE
10
564763.506
20
6589785.087
30
0.000
11
564763.509
21
6589785.093
31
0.000
8
0
6
XKITLINE00
62
7
0
LINE
10
564763.509
20
6589785.093
30
0.000
11
564763.513
21
6589785.099
31
0.000
8
0
6
XKITLINE00
62
7
0
LINE
10
564763.513
20
6589785.099
30
0.000
11
564763.517
21
6589785.104
31
0.000
8
0
6
XKITLINE00
62
7
0
LINE
10
564763.517
20
6589785.104
30
0.000
11
564763.522
21
6589785.109
31
0.000
8
0
6
XKITLINE00
62
7
0
LINE
10
564763.522
20
6589785.109
30
0.000
11
564763.527
21
6589785.114
31
0.000
8
0
6
XKITLINE00
62
7
0
LINE
10
564763.527
20
6589785.114
30
0.000
11
564763.533
21
6589785.118
31
0.000
8
0
6
XKITLINE00
62
7
0
LINE
10
564763.533
20
6589785.118
30
0.000
11
564763.539
21
6589785.121
31
0.000
8
0
6
XKITLINE00
62
7
0
LINE
10
564763.539
20
6589785.121
30
0.000
11
564763.545
21
6589785.124
31
0.000
8
0
6
XKITLINE00
62
7
0
LINE
10
564763.545
20
6589785.124
30
0.000
11
564763.545
21
6589785.124
31
0.000
8
0
6
XKITLINE00
62
7
0
LINE
10
564852.156
20
6589735.768
30
0.000
11
564852.156
21
6589735.208
31
0.000
8
0
6
XKITLINE00
62
7
0
LINE
10
564851.106
20
6589734.438
30
0.000
11
564851.106
21
6589736.538
31
0.000
8
0
6
XKITLINE00
62
7
0
LINE
10
564851.631
20
6589734.963
30
0.000
11
564851.631
21
6589736.013
31
0.000
8
0
6
XKITLINE00
62
7
0
LINE
10
564850.406
20
6589735.488
30
0.000
11
564851.106
21
6589735.488
31
0.000
8
0
6
XKITLINE00
62
7
0
CIRCLE
10
564851.281
20
6589735.488
30
0.000
40
1.225
8
0
6
XKITLINE00
62
7
0
LINE
10
564850.056
20
6589735.488
30
0.000
11
564846.381
21
6589735.488
31
0.000
8
0
6
XKITLINE00
62
7
0
LINE
10
564850.329
20
6589735.419
30
0.000
11
564850.322
21
6589735.420
31
0.000
8
0
6
XKITLINE00
62
7
0
LINE
10
564850.322
20
6589735.420
30
0.000
11
564850.316
21
6589735.421
31
0.000
8
0
6
XKITLINE00
62
7
0
LINE
10
564850.316
20
6589735.421
30
0.000
11
564850.309
21
6589735.424
31
0.000
8
0
6
XKITLINE00
62
7
0
LINE
10
564850.309
20
6589735.424
30
0.000
11
564850.303
21
6589735.427
31
0.000
8
0
6
XKITLINE00
62
7
0
LINE
10
564850.303
20
6589735.427
30
0.000
11
564850.297
21
6589735.430
31
0.000
8
0
6
XKITLINE00
62
7
0
LINE
10
564850.297
20
6589735.430
30
0.000
11
564850.292
21
6589735.434
31
0.000
8
0
6
XKITLINE00
62
7
0
LINE
10
564850.292
20
6589735.434
30
0.000
11
564850.286
21
6589735.439
31
0.000
8
0
6
XKITLINE00
62
7
0
LINE
10
564850.286
20
6589735.439
30
0.000
11
564850.282
21
6589735.444
31
0.000
8
0
6
XKITLINE00
62
7
0
LINE
10
564850.282
20
6589735.444
30
0.000
11
564850.278
21
6589735.449
31
0.000
8
0
6
XKITLINE00
62
7
0
LINE
10
564850.278
20
6589735.449
30
0.000
11
564850.274
21
6589735.455
31
0.000
8
0
6
XKITLINE00
62
7
0
LINE
10
564850.274
20
6589735.455
30
0.000
11
564850.271
21
6589735.461
31
0.000
8
0
6
XKITLINE00
62
7
0
LINE
10
564850.271
20
6589735.461
30
0.000
11
564850.269
21
6589735.468
31
0.000
8
0
6
XKITLINE00
62
7
0
LINE
10
564850.269
20
6589735.468
30
0.000
11
564850.267
21
6589735.475
31
0.000
8
0
6
XKITLINE00
62
7
0
LINE
10
564850.267
20
6589735.475
30
0.000
11
564850.266
21
6589735.481
31
0.000
8
0
6
XKITLINE00
62
7
0
LINE
10
564850.266
20
6589735.481
30
0.000
11
564850.266
21
6589735.488
31
0.000
8
0
6
XKITLINE00
62
7
0
LINE
10
564850.266
20
6589735.488
30
0.000
11
564850.266
21
6589735.495
31
0.000
8
0
6
XKITLINE00
62
7
0
LINE
10
564850.266
20
6589735.495
30
0.000
11
564850.267
21
6589735.502
31
0.000
8
0
6
XKITLINE00
62
7
0
LINE
10
564850.267
20
6589735.502
30
0.000
11
564850.269
21
6589735.509
31
0.000
8
0
6
XKITLINE00
62
7
0
LINE
10
564850.269
20
6589735.509
30
0.000
11
564850.271
21
6589735.515
31
0.000
8
0
6
XKITLINE00
62
7
0
LINE
10
564850.271
20
6589735.515
30
0.000
11
564850.274
21
6589735.521
31
0.000
8
0
6
XKITLINE00
62
7
0
LINE
10
564850.274
20
6589735.521
30
0.000
11
564850.278
21
6589735.527
31
0.000
8
0
6
XKITLINE00
62
7
0
LINE
10
564850.278
20
6589735.527
30
0.000
11
564850.282
21
6589735.533
31
0.000
8
0
6
XKITLINE00
62
7
0
LINE
10
564850.282
20
6589735.533
30
0.000
11
564850.286
21
6589735.538
31
0.000
8
0
6
XKITLINE00
62
7
0
LINE
10
564850.286
20
6589735.538
30
0.000
11
564850.292
21
6589735.542
31
0.000
8
0
6
XKITLINE00
62
7
0
LINE
10
564850.292
20
6589735.542
30
0.000
11
564850.297
21
6589735.546
31
0.000
8
0
6
XKITLINE00
62
7
0
LINE
10
564850.297
20
6589735.546
30
0.000
11
564850.303
21
6589735.550
31
0.000
8
0
6
XKITLINE00
62
7
0
LINE
10
564850.303
20
6589735.550
30
0.000
11
564850.309
21
6589735.553
31
0.000
8
0
6
XKITLINE00
62
7
0
LINE
10
564850.309
20
6589735.553
30
0.000
11
564850.316
21
6589735.555
31
0.000
8
0
6
XKITLINE00
62
7
0
LINE
10
564850.316
20
6589735.555
30
0.000
11
564850.322
21
6589735.557
31
0.000
8
0
6
XKITLINE00
62
7
0
LINE
10
564850.322
20
6589735.557
30
0.000
11
564850.329
21
6589735.558
31
0.000
8
0
6
XKITLINE00
62
7
0
LINE
10
564850.329
20
6589735.558
30
0.000
11
564850.336
21
6589735.558
31
0.000
8
0
6
XKITLINE00
62
7
0
LINE
10
564850.336
20
6589735.558
30
0.000
11
564850.343
21
6589735.558
31
0.000
8
0
6
XKITLINE00
62
7
0
LINE
10
564850.343
20
6589735.558
30
0.000
11
564850.350
21
6589735.557
31
0.000
8
0
6
XKITLINE00
62
7
0
LINE
10
564850.350
20
6589735.557
30
0.000
11
564850.356
21
6589735.555
31
0.000
8
0
6
XKITLINE00
62
7
0
LINE
10
564850.356
20
6589735.555
30
0.000
11
564850.363
21
6589735.553
31
0.000
8
0
6
XKITLINE00
62
7
0
LINE
10
564850.363
20
6589735.553
30
0.000
11
564850.369
21
6589735.550
31
0.000
8
0
6
XKITLINE00
62
7
0
LINE
10
564850.369
20
6589735.550
30
0.000
11
564850.375
21
6589735.546
31
0.000
8
0
6
XKITLINE00
62
7
0
LINE
10
564850.375
20
6589735.546
30
0.000
11
564850.380
21
6589735.542
31
0.000
8
0
6
XKITLINE00
62
7
0
LINE
10
564850.380
20
6589735.542
30
0.000
11
564850.385
21
6589735.538
31
0.000
8
0
6
XKITLINE00
62
7
0
LINE
10
564850.385
20
6589735.538
30
0.000
11
564850.390
21
6589735.533
31
0.000
8
0
6
XKITLINE00
62
7
0
LINE
10
564850.390
20
6589735.533
30
0.000
11
564850.394
21
6589735.527
31
0.000
8
0
6
XKITLINE00
62
7
0
LINE
10
564850.394
20
6589735.527
30
0.000
11
564850.398
21
6589735.521
31
0.000
8
0
6
XKITLINE00
62
7
0
LINE
10
564850.398
20
6589735.521
30
0.000
11
564850.401
21
6589735.515
31
0.000
8
0
6
XKITLINE00
62
7
0
LINE
10
564850.401
20
6589735.515
30
0.000
11
564850.403
21
6589735.509
31
0.000
8
0
6
XKITLINE00
62
7
0
LINE
10
564850.403
20
6589735.509
30
0.000
11
564850.405
21
6589735.502
31
0.000
8
0
6
XKITLINE00
62
7
0
LINE
10
564850.405
20
6589735.502
30
0.000
11
564850.406
21
6589735.495
31
0.000
8
0
6
XKITLINE00
62
7
0
LINE
10
564850.406
20
6589735.495
30
0.000
11
564850.406
21
6589735.488
31
0.000
8
0
6
XKITLINE00
62
7
0
LINE
10
564850.406
20
6589735.488
30
0.000
11
564850.406
21
6589735.481
31
0.000
8
0
6
XKITLINE00
62
7
0
LINE
10
564850.406
20
6589735.481
30
0.000
11
564850.405
21
6589735.475
31
0.000
8
0
6
XKITLINE00
62
7
0
LINE
10
564850.405
20
6589735.475
30
0.000
11
564850.403
21
6589735.468
31
0.000
8
0
6
XKITLINE00
62
7
0
LINE
10
564850.403
20
6589735.468
30
0.000
11
564850.401
21
6589735.461
31
0.000
8
0
6
XKITLINE00
62
7
0
LINE
10
564850.401
20
6589735.461
30
0.000
11
564850.398
21
6589735.455
31
0.000
8
0
6
XKITLINE00
62
7
0
LINE
10
564850.398
20
6589735.455
30
0.000
11
564850.394
21
6589735.449
31
0.000
8
0
6
XKITLINE00
62
7
0
LINE
10
564850.394
20
6589735.449
30
0.000
11
564850.390
21
6589735.444
31
0.000
8
0
6
XKITLINE00
62
7
0
LINE
10
564850.390
20
6589735.444
30
0.000
11
564850.385
21
6589735.439
31
0.000
8
0
6
XKITLINE00
62
7
0
LINE
10
564850.385
20
6589735.439
30
0.000
11
564850.380
21
6589735.434
31
0.000
8
0
6
XKITLINE00
62
7
0
LINE
10
564850.380
20
6589735.434
30
0.000
11
564850.375
21
6589735.430
31
0.000
8
0
6
XKITLINE00
62
7
0
LINE
10
564850.375
20
6589735.430
30
0.000
11
564850.369
21
6589735.427
31
0.000
8
0
6
XKITLINE00
62
7
0
LINE
10
564850.369
20
6589735.427
30
0.000
11
564850.363
21
6589735.424
31
0.000
8
0
6
XKITLINE00
62
7
0
LINE
10
564850.363
20
6589735.424
30
0.000
11
564850.356
21
6589735.421
31
0.000
8
0
6
XKITLINE00
62
7
0
LINE
10
564850.356
20
6589735.421
30
0.000
11
564850.350
21
6589735.420
31
0.000
8
0
6
XKITLINE00
62
7
0
LINE
10
564850.350
20
6589735.420
30
0.000
11
564850.343
21
6589735.419
31
0.000
8
0
6
XKITLINE00
62
7
0
LINE
10
564850.343
20
6589735.419
30
0.000
11
564850.336
21
6589735.418
31
0.000
8
0
6
XKITLINE00
62
7
0
LINE
10
564850.336
20
6589735.418
30
0.000
11
564850.329
21
6589735.419
31
0.000
8
0
6
XKITLINE00
62
7
0
LINE
10
564850.329
20
6589735.419
30
0.000
11
564850.329
21
6589735.419
31
0.000
8
0
6
XKITLINE00
62
7
0
LINE
10
564952.930
20
6589681.469
30
0.000
11
564953.567
21
6589681.470
31
0.000
8
0
6
XKITLINE00
62
7
0
LINE
10
564954.204
20
6589681.471
30
0.000
11
564953.567
21
6589681.470
31
0.000
8
0
6
XKITLINE00
62
7
0
LINE
10
564954.351
20
6589681.471
30
0.000
11
564954.204
21
6589681.471
31
0.000
8
0
6
XKITLINE00
62
7
0
LINE
10
564787.152
20
6589698.582
30
0.000
11
564787.744
21
6589698.820
31
0.000
8
0
6
XKITLINE00
62
7
0
LINE
10
564788.926
20
6589699.295
30
0.000
11
564791.292
21
6589700.247
31
0.000
8
0
6
XKITLINE00
62
7
0
LINE
10
564792.005
20
6589698.473
30
0.000
11
564790.578
21
6589702.021
31
0.000
8
0
6
XKITLINE00
62
7
0
LINE
10
564788.335
20
6589699.058
30
0.000
11
564787.744
21
6589698.820
31
0.000
8
0
6
XKITLINE00
62
7
0
LINE
10
564793.894
20
6589700.607
30
0.000
11
564793.419
21
6589701.789
31
0.000
8
0
6
XKITLINE00
62
7
0
LINE
10
564788.926
20
6589699.295
30
0.000
11
564788.335
21
6589699.058
31
0.000
8
0
6
XKITLINE00
62
7
0
LINE
10
564792.950
20
6589699.540
30
0.000
11
564791.999
21
6589701.905
31
0.000
8
0
6
XKITLINE00
62
7
0
LINE
10
564822.770
20
6589715.473
30
0.000
11
564822.549
21
6589714.875
31
0.000
8
0
6
XKITLINE00
62
5
0
LINE
10
564822.107
20
6589713.679
30
0.000
11
564821.224
21
6589711.288
31
0.000
8
0
6
XKITLINE00
62
5
0
LINE
10
564819.430
20
6589711.950
30
0.000
11
564823.017
21
6589710.625
31
0.000
8
0
6
XKITLINE00
62
5
0
LINE
10
564822.328
20
6589714.277
30
0.000
11
564822.549
21
6589714.875
31
0.000
8
0
6
XKITLINE00
62
5
0
LINE
10
564819.742
20
6589709.117
30
0.000
11
564820.938
21
6589708.675
31
0.000
8
0
6
XKITLINE00
62
5
0
LINE
10
564822.107
20
6589713.679
30
0.000
11
564822.328
21
6589714.277
31
0.000
8
0
6
XKITLINE00
62
5
0
LINE
10
564819.586
20
6589710.534
30
0.000
11
564821.978
21
6589709.650
31
0.000
8
0
6
XKITLINE00
62
5
0
LINE
10
564709.926
20
6589799.465
30
0.000
11
564709.569
21
6589798.937
31
0.000
8
0
6
XKITLINE00
62
7
0
LINE
10
564708.856
20
6589797.880
30
0.000
11
564707.431
21
6589795.766
31
0.000
8
0
6
XKITLINE00
62
7
0
LINE
10
564705.846
20
6589796.836
30
0.000
11
564709.016
21
6589794.697
31
0.000
8
0
6
XKITLINE00
62
7
0
LINE
10
564709.213
20
6589798.408
30
0.000
11
564709.569
21
6589798.937
31
0.000
8
0
6
XKITLINE00
62
7
0
LINE
10
564705.477
20
6589794.010
30
0.000
11
564706.533
21
6589793.297
31
0.000
8
0
6
XKITLINE00
62
7
0
LINE
10
564708.856
20
6589797.880
30
0.000
11
564709.213
21
6589798.408
31
0.000
8
0
6
XKITLINE00
62
7
0
LINE
10
564705.661
20
6589795.423
30
0.000
11
564707.774
21
6589793.997
31
0.000
8
0
6
XKITLINE00
62
7
0
LINE
10
564740.012
20
6589792.816
30
0.000
11
564739.923
21
6589792.185
31
0.000
8
0
6
XKITLINE00
62
7
0
LINE
10
564739.745
20
6589790.923
30
0.000
11
564739.389
21
6589788.399
31
0.000
8
0
6
XKITLINE00
62
7
0
LINE
10
564737.496
20
6589788.666
30
0.000
11
564741.282
21
6589788.132
31
0.000
8
0
6
XKITLINE00
62
7
0
LINE
10
564739.834
20
6589791.554
30
0.000
11
564739.923
21
6589792.185
31
0.000
8
0
6
XKITLINE00
62
7
0
LINE
10
564738.402
20
6589785.963
30
0.000
11
564739.665
21
6589785.785
31
0.000
8
0
6
XKITLINE00
62
7
0
LINE
10
564739.745
20
6589790.923
30
0.000
11
564739.834
21
6589791.554
31
0.000
8
0
6
XKITLINE00
62
7
0
LINE
10
564737.949
20
6589787.314
30
0.000
11
564740.473
21
6589786.959
31
0.000
8
0
6
XKITLINE00
62
7
0
LINE
10
564767.113
20
6589786.828
30
0.000
11
564767.011
21
6589786.199
31
0.000
8
0
6
XKITLINE00
62
7
0
LINE
10
564766.806
20
6589784.941
30
0.000
11
564766.395
21
6589782.425
31
0.000
8
0
6
XKITLINE00
62
7
0
LINE
10
564764.508
20
6589782.733
30
0.000
11
564768.283
21
6589782.117
31
0.000
8
0
6
XKITLINE00
62
7
0
LINE
10
564766.908
20
6589785.570
30
0.000
11
564767.011
21
6589786.199
31
0.000
8
0
6
XKITLINE00
62
7
0
LINE
10
564765.356
20
6589780.011
30
0.000
11
564766.614
21
6589779.806
31
0.000
8
0
6
XKITLINE00
62
7
0
LINE
10
564766.806
20
6589784.941
30
0.000
11
564766.908
21
6589785.570
31
0.000
8
0
6
XKITLINE00
62
7
0
LINE
10
564764.932
20
6589781.372
30
0.000
11
564767.448
21
6589780.962
31
0.000
8
0
6
XKITLINE00
62
7
0
LINE
10
564805.465
20
6589782.301
30
0.000
11
564805.453
21
6589781.664
31
0.000
8
0
6
XKITLINE00
62
7
0
LINE
10
564805.429
20
6589780.389
30
0.000
11
564805.382
21
6589777.840
31
0.000
8
0
6
XKITLINE00
62
7
0
LINE
10
564803.470
20
6589777.876
30
0.000
11
564807.294
21
6589777.805
31
0.000
8
0
6
XKITLINE00
62
7
0
LINE
10
564805.441
20
6589781.026
30
0.000
11
564805.453
21
6589781.664
31
0.000
8
0
6
XKITLINE00
62
7
0
LINE
10
564804.698
20
6589775.303
30
0.000
11
564805.972
21
6589775.280
31
0.000
8
0
6
XKITLINE00
62
7
0
LINE
10
564805.429
20
6589780.389
30
0.000
11
564805.441
21
6589781.026
31
0.000
8
0
6
XKITLINE00
62
7
0
LINE
10
564804.084
20
6589776.589
30
0.000
11
564806.633
21
6589776.542
31
0.000
8
0
6
XKITLINE00
62
7
0
LINE
10
564774.059
20
6589817.336
30
0.000
11
564773.777
21
6589817.908
31
0.000
8
0
6
XKITLINE00
62
7
0
LINE
10
564773.213
20
6589819.051
30
0.000
11
564772.084
21
6589821.337
31
0.000
8
0
6
XKITLINE00
62
7
0
LINE
10
564773.799
20
6589822.183
30
0.000
11
564770.370
21
6589820.491
31
0.000
8
0
6
XKITLINE00
62
7
0
LINE
10
564773.495
20
6589818.479
30
0.000
11
564773.777
21
6589817.908
31
0.000
8
0
6
XKITLINE00
62
7
0
LINE
10
564771.528
20
6589823.905
30
0.000
11
564770.385
21
6589823.341
31
0.000
8
0
6
XKITLINE00
62
7
0
LINE
10
564773.213
20
6589819.051
30
0.000
11
564773.495
21
6589818.479
31
0.000
8
0
6
XKITLINE00
62
7
0
LINE
10
564772.664
20
6589823.044
30
0.000
11
564770.377
21
6589821.916
31
0.000
8
0
6
XKITLINE00
62
7
0
LINE
10
564776.215
20
6589757.188
30
0.000
11
564776.852
21
6589757.189
31
0.000
8
0
6
XKITLINE00
62
7
0
LINE
10
564778.127
20
6589757.191
30
0.000
11
564780.676
21
6589757.196
31
0.000
8
0
6
XKITLINE00
62
7
0
LINE
10
564780.680
20
6589755.284
30
0.000
11
564780.672
21
6589759.108
31
0.000
8
0
6
XKITLINE00
62
7
0
LINE
10
564777.490
20
6589757.190
30
0.000
11
564776.852
21
6589757.189
31
0.000
8
0
6
XKITLINE00
62
7
0
LINE
10
564783.227
20
6589756.563
30
0.000
11
564783.224
21
6589757.838
31
0.000
8
0
6
XKITLINE00
62
7
0
LINE
10
564778.127
20
6589757.191
30
0.000
11
564777.490
21
6589757.190
31
0.000
8
0
6
XKITLINE00
62
7
0
LINE
10
564781.953
20
6589755.924
30
0.000
11
564781.949
21
6589758.473
31
0.000
8
0
6
XKITLINE00
62
7
0
LINE
10
564875.676
20
6589660.023
30
0.000
11
564875.946
21
6589659.446
31
0.000
8
0
6
XKITLINE00
62
7
0
LINE
10
564876.487
20
6589658.292
30
0.000
11
564877.569
21
6589655.984
31
0.000
8
0
6
XKITLINE00
62
7
0
LINE
10
564875.837
20
6589655.172
30
0.000
11
564879.300
21
6589656.795
31
0.000
8
0
6
XKITLINE00
62
7
0
LINE
10
564876.217
20
6589658.869
30
0.000
11
564875.946
21
6589659.446
31
0.000
8
0
6
XKITLINE00
62
7
0
LINE
10
564878.074
20
6589653.405
30
0.000
11
564879.228
21
6589653.946
31
0.000
8
0
6
XKITLINE00
62
7
0
LINE
10
564876.487
20
6589658.292
30
0.000
11
564876.217
21
6589658.869
31
0.000
8
0
6
XKITLINE00
62
7
0
LINE
10
564876.956
20
6589654.288
30
0.000
11
564879.264
21
6589655.370
31
0.000
8
0
6
XKITLINE00
62
7
0
LINE
10
564840.262
20
6589707.059
30
0.000
11
564840.499
21
6589706.467
31
0.000
8
0
6
XKITLINE00
62
7
0
LINE
10
564840.975
20
6589705.285
30
0.000
11
564841.926
21
6589702.919
31
0.000
8
0
6
XKITLINE00
62
7
0
LINE
10
564840.152
20
6589702.206
30
0.000
11
564843.700
21
6589703.633
31
0.000
8
0
6
XKITLINE00
62
7
0
LINE
10
564840.737
20
6589705.876
30
0.000
11
564840.499
21
6589706.467
31
0.000
8
0
6
XKITLINE00
62
7
0
LINE
10
564842.286
20
6589700.316
30
0.000
11
564843.469
21
6589700.792
31
0.000
8
0
6
XKITLINE00
62
7
0
LINE
10
564840.975
20
6589705.285
30
0.000
11
564840.737
21
6589705.876
31
0.000
8
0
6
XKITLINE00
62
7
0
LINE
10
564841.220
20
6589701.261
30
0.000
11
564843.585
21
6589702.212
31
0.000
8
0
6
XKITLINE00
62
7
0
LINE
10
564931.316
20
6589712.043
30
0.000
11
564931.484
21
6589712.658
31
0.000
8
0
6
XKITLINE00
62
7
0
LINE
10
564931.818
20
6589713.888
30
0.000
11
564932.487
21
6589716.348
31
0.000
8
0
6
XKITLINE00
62
7
0
LINE
10
564934.332
20
6589715.847
30
0.000
11
564930.641
21
6589716.849
31
0.000
8
0
6
XKITLINE00
62
7
0
LINE
10
564931.651
20
6589713.273
30
0.000
11
564931.484
21
6589712.658
31
0.000
8
0
6
XKITLINE00
62
7
0
LINE
10
564933.770
20
6589718.641
30
0.000
11
564932.540
21
6589718.975
31
0.000
8
0
6
XKITLINE00
62
7
0
LINE
10
564931.818
20
6589713.888
30
0.000
11
564931.651
21
6589713.273
31
0.000
8
0
6
XKITLINE00
62
7
0
LINE
10
564934.051
20
6589717.244
30
0.000
11
564931.591
21
6589717.913
31
0.000
8
0
6
XKITLINE00
62
7
0
LINE
10
564933.113
20
6589711.531
30
0.000
11
564933.315
21
6589712.136
31
0.000
8
0
6
XKITLINE00
62
7
0
LINE
10
564933.717
20
6589713.345
30
0.000
11
564934.522
21
6589715.764
31
0.000
8
0
6
XKITLINE00
62
7
0
LINE
10
564936.336
20
6589715.161
30
0.000
11
564932.708
21
6589716.368
31
0.000
8
0
6
XKITLINE00
62
7
0
LINE
10
564933.516
20
6589712.741
30
0.000
11
564933.315
21
6589712.136
31
0.000
8
0
6
XKITLINE00
62
7
0
LINE
10
564935.932
20
6589717.982
30
0.000
11
564934.722
21
6589718.385
31
0.000
8
0
6
XKITLINE00
62
7
0
LINE
10
564933.717
20
6589713.345
30
0.000
11
564933.516
21
6589712.741
31
0.000
8
0
6
XKITLINE00
62
7
0
LINE
10
564936.134
20
6589716.571
30
0.000
11
564933.715
21
6589717.376
31
0.000
8
0
6
XKITLINE00
62
7
0
LINE
10
564846.379
20
6589735.488
30
0.000
11
564846.058
21
6589736.039
31
0.000
8
0
6
XKITLINE00
62
7
0
LINE
10
564845.417
20
6589737.141
30
0.000
11
564844.135
21
6589739.344
31
0.000
8
0
6
XKITLINE00
62
7
0
LINE
10
564845.787
20
6589740.306
30
0.000
11
564842.482
21
6589738.382
31
0.000
8
0
6
XKITLINE00
62
7
0
LINE
10
564845.738
20
6589736.590
30
0.000
11
564846.058
21
6589736.039
31
0.000
8
0
6
XKITLINE00
62
7
0
LINE
10
564843.403
20
6589741.868
30
0.000
11
564842.301
21
6589741.227
31
0.000
8
0
6
XKITLINE00
62
7
0
LINE
10
564845.417
20
6589737.141
30
0.000
11
564845.738
21
6589736.590
31
0.000
8
0
6
XKITLINE00
62
7
0
LINE
10
564844.595
20
6589741.087
30
0.000
11
564842.392
21
6589739.805
31
0.000
8
0
6
XKITLINE00
62
7
0
LINE
10
564779.411
20
6589845.959
30
0.000
11
564779.067
21
6589845.572
31
0.000
8
0
6
XKITLINE00
62
7
0
LINE
10
564778.633
20
6589845.959
30
0.000
11
564780.494
21
6589844.300
31
0.000
8
0
6
XKITLINE00
62
7
0
LINE
10
564776.895
20
6589844.093
30
0.000
11
564777.846
21
6589843.245
31
0.000
8
0
6
XKITLINE00
62
7
0
LINE
10
564777.267
20
6589845.468
30
0.000
11
564779.170
21
6589843.772
31
0.000
8
0
6
XKITLINE00
62
7
0
LINE
10
564765.715
20
6589752.504
30
0.000
11
564765.715
21
6589766.566
31
0.000
8
0
6
XKITLINE00
62
1
0
LINE
10
564765.715
20
6589766.566
30
0.000
11
564779.778
21
6589766.566
31
0.000
8
0
6
XKITLINE00
62
1
0
LINE
10
564779.778
20
6589752.504
30
0.000
11
564765.715
21
6589752.504
31
0.000
8
0
6
XKITLINE00
62
1
0
LINE
10
564779.778
20
6589766.566
30
0.000
11
564779.778
21
6589752.504
31
0.000
8
0
6
XKITLINE00
62
1
0
LINE
10
564765.715
20
6589752.504
30
0.000
11
564772.786
21
6589765.175
31
0.000
8
0
6
XKITLINE00
62
1
0
LINE
10
564779.746
20
6589752.535
30
0.000
11
564772.746
21
6589765.135
31
0.000
8
0
6
XKITLINE00
62
1
0
LINE
10
564779.746
20
6589766.535
30
0.000
11
564779.746
21
6589765.135
31
0.000
8
0
6
XKITLINE00
62
1
0
LINE
10
564779.746
20
6589765.135
30
0.000
11
564765.746
21
6589765.135
31
0.000
8
0
6
XKITLINE00
62
1
0
LINE
10
564765.746
20
6589765.135
30
0.000
11
564765.746
21
6589766.535
31
0.000
8
0
6
XKITLINE00
62
1
0
LINE
10
564765.746
20
6589766.535
30
0.000
11
564779.746
21
6589766.535
31
0.000
8
0
6
XKITLINE00
62
1
0
LINE
10
564779.746
20
6589766.535
30
0.000
11
564779.746
21
6589766.535
31
0.000
8
0
6
XKITLINE00
62
1
0
LINE
10
564772.741
20
6589759.535
30
0.000
11
564772.751
21
6589759.535
31
0.000
8
0
6
XKITLINE00
62
1
0
LINE
10
564772.746
20
6589759.530
30
0.000
11
564772.746
21
6589759.540
31
0.000
8
0
6
XKITLINE00
62
1
0
LINE
10
564772.678
20
6589759.157
30
0.000
11
564772.674
21
6589759.157
31
0.000
8
0
6
XKITLINE00
62
3
0
LINE
10
564772.678
20
6589759.156
30
0.000
11
564772.674
21
6589759.156
31
0.000
8
0
6
XKITLINE00
62
3
0
LINE
10
564772.674
20
6589759.156
30
0.000
11
564772.676
21
6589759.156
31
0.000
8
0
6
XKITLINE00
62
3
0
LINE
10
564772.674
20
6589759.156
30
0.000
11
564772.676
21
6589759.155
31
0.000
8
0
6
XKITLINE00
62
3
0
LINE
10
564772.678
20
6589759.157
30
0.000
11
564772.677
21
6589759.157
31
0.000
8
0
6
XKITLINE00
62
3
0
LINE
10
564772.678
20
6589759.157
30
0.000
11
564772.677
21
6589759.157
31
0.000
8
0
6
XKITLINE00
62
3
0
LINE
10
564772.676
20
6589759.158
30
0.000
11
564772.676
21
6589759.161
31
0.000
8
0
6
XKITLINE00
62
3
0
LINE
10
564772.676
20
6589759.161
30
0.000
11
564772.667
21
6589759.161
31
0.000
8
0
6
XKITLINE00
62
3
0
LINE
10
564772.667
20
6589759.161
30
0.000
11
564772.667
21
6589759.152
31
0.000
8
0
6
XKITLINE00
62
3
0
LINE
10
564772.667
20
6589759.152
30
0.000
11
564772.676
21
6589759.152
31
0.000
8
0
6
XKITLINE00
62
3
0
LINE
10
564772.676
20
6589759.152
30
0.000
11
564772.676
21
6589759.155
31
0.000
8
0
6
XKITLINE00
62
3
0
LINE
10
564772.670
20
6589759.158
30
0.000
11
564772.670
21
6589759.154
31
0.000
8
0
6
XKITLINE00
62
3
0
LINE
10
564772.670
20
6589759.156
30
0.000
11
564772.673
21
6589759.158
31
0.000
8
0
6
XKITLINE00
62
3
0
LINE
10
564772.671
20
6589759.156
30
0.000
11
564772.673
21
6589759.154
31
0.000
8
0
6
XKITLINE00
62
3
0
LINE
10
564772.746
20
6589759.238
30
0.000
11
564772.746
21
6589759.229
31
0.000
8
0
6
XKITLINE00
62
7
0
LINE
10
564772.755
20
6589759.243
30
0.000
11
564772.746
21
6589759.238
31
0.000
8
0
6
XKITLINE00
62
7
0
LINE
10
564772.737
20
6589759.243
30
0.000
11
564772.746
21
6589759.238
31
0.000
8
0
6
XKITLINE00
62
7
0
LINE
10
564772.746
20
6589759.282
30
0.000
11
564772.737
21
6589759.269
31
0.000
8
0
6
XKITLINE00
62
7
0
LINE
10
564772.737
20
6589759.269
30
0.000
11
564772.755
21
6589759.269
31
0.000
8
0
6
XKITLINE00
62
7
0
LINE
10
564772.755
20
6589759.269
30
0.000
11
564772.746
21
6589759.282
31
0.000
8
0
6
XKITLINE00
62
7
0
LINE
10
564772.746
20
6589759.282
30
0.000
11
564772.746
21
6589759.282
31
0.000
8
0
6
XKITLINE00
62
7
0
LINE
10
564936.785
20
6589638.891
30
0.000
11
564936.785
21
6589632.959
31
0.000
8
0
6
XKITLINE00
62
7
0
LINE
10
564939.785
20
6589635.891
30
0.000
11
564933.785
21
6589635.891
31
0.000
8
0
6
XKITLINE00
62
7
0
LINE
10
564938.885
20
6589637.991
30
0.000
11
564934.685
21
6589633.791
31
0.000
8
0
6
XKITLINE00
62
7
0
LINE
10
564934.685
20
6589637.991
30
0.000
11
564938.885
21
6589633.791
31
0.000
8
0
6
XKITLINE00
62
7
0
LINE
10
564773.057
20
6589790.651
30
0.000
11
564772.317
21
6589789.639
31
0.000
8
0
6
XKITLINE00
62
7
0
LINE
10
564771.498
20
6589781.787
30
0.000
11
564773.057
21
6589790.651
31
0.000
8
0
6
XKITLINE00
62
7
0
LINE
10
564773.066
20
6589790.647
30
0.000
11
564773.422
21
6589789.441
31
0.000
8
0
6
XKITLINE00
62
7
0
LINE
10
564771.498
20
6589781.787
30
0.000
11
564771.161
21
6589782.988
31
0.000
8
0
6
XKITLINE00
62
7
0
LINE
10
564771.498
20
6589781.787
30
0.000
11
564772.247
21
6589782.797
31
0.000
8
0
6
XKITLINE00
62
7
0
LINE
10
564848.568
20
6589719.634
30
0.000
11
564847.634
21
6589720.471
31
0.000
8
0
6
XKITLINE00
62
7
0
LINE
10
564839.901
20
6589722.061
30
0.000
11
564848.568
21
6589719.634
31
0.000
8
0
6
XKITLINE00
62
7
0
LINE
10
564848.563
20
6589719.625
30
0.000
11
564847.328
21
6589719.390
31
0.000
8
0
6
XKITLINE00
62
7
0
LINE
10
564839.901
20
6589722.061
30
0.000
11
564841.130
21
6589722.278
31
0.000
8
0
6
XKITLINE00
62
7
0
LINE
10
564839.901
20
6589722.061
30
0.000
11
564840.833
21
6589721.216
31
0.000
8
0
6
XKITLINE00
62
7
0
CIRCLE
10
564796.815
20
6589782.301
30
0.000
40
1.425
8
0
6
XKITLINE00
62
7
0
LINE
10
564798.240
20
6589782.301
30
0.000
11
564803.465
21
6589782.301
31
0.000
8
0
6
XKITLINE02
62
7
0
CIRCLE
10
564928.427
20
6589638.119
30
0.000
40
1.425
8
0
6
XKITLINE00
62
7
0
LINE
10
564929.804
20
6589637.752
30
0.000
11
564934.853
21
6589636.406
31
0.000
8
0
6
XKITLINE02
62
7
0
CIRCLE
10
564837.374
20
6589698.905
30
0.000
40
1.425
8
0
6
XKITLINE00
62
7
0
LINE
10
564837.849
20
6589700.248
30
0.000
11
564839.594
21
6589705.173
31
0.000
8
0
6
XKITLINE02
62
7
0
CIRCLE
10
564843.957
20
6589727.184
30
0.000
40
1.425
8
0
6
XKITLINE00
62
7
0
LINE
10
564844.356
20
6589728.552
30
0.000
11
564845.819
21
6589733.568
31
0.000
8
0
6
XKITLINE02
62
7
0
CIRCLE
10
564795.235
20
6589695.500
30
0.000
40
1.425
8
0
6
XKITLINE00
62
7
0
LINE
10
564793.903
20
6589696.008
30
0.000
11
564789.021
21
6589697.869
31
0.000
8
0
6
XKITLINE02
62
7
0
CIRCLE
10
564835.819
20
6589686.539
30
0.000
40
1.425
8
0
6
XKITLINE00
62
7
0
LINE
10
564835.332
20
6589685.200
30
0.000
11
564833.547
21
6589680.290
31
0.000
8
0
6
XKITLINE02
62
7
0
LINE
10
564935.996
20
6589632.959
30
0.000
11
564936.265
21
6589633.959
31
0.000
8
0
6
XKITLINE02
62
7
0
CIRCLE
10
564718.573
20
6589799.254
30
0.000
40
1.425
8
0
6
XKITLINE00
62
7
0
LINE
10
564717.149
20
6589799.289
30
0.000
11
564711.925
21
6589799.416
31
0.000
8
0
6
XKITLINE02
62
7
0
CIRCLE
10
564767.646
20
6589795.462
30
0.000
40
1.425
8
0
6
XKITLINE00
62
7
0
LINE
10
564767.558
20
6589794.039
30
0.000
11
564767.237
21
6589788.824
31
0.000
8
0
6
XKITLINE02
62
7
0
LINE
10
564772.641
20
6589759.410
30
0.000
11
564772.641
21
6589759.410
31
0.000
8
0
6
XKITLINE00
62
4
0
LINE
10
564772.641
20
6589759.410
30
0.000
11
564772.641
21
6589759.410
31
0.000
8
0
6
XKITLINE00
62
4
0
LINE
10
564772.641
20
6589759.410
30
0.000
11
564772.641
21
6589759.410
31
0.000
8
0
6
XKITLINE00
62
4
0
LINE
10
564772.535
20
6589759.410
30
0.000
11
564772.535
21
6589759.410
31
0.000
8
0
6
XKITLINE00
62
4
0
LINE
10
564772.535
20
6589759.410
30
0.000
11
564772.535
21
6589759.410
31
0.000
8
0
6
XKITLINE00
62
4
0
LINE
10
564772.535
20
6589759.410
30
0.000
11
564772.535
21
6589759.410
31
0.000
8
0
6
XKITLINE00
62
4
0
CIRCLE
10
564772.746
20
6589758.887
30
0.000
40
0.025
8
0
6
XKITLINE00
62
1
0
LINE
10
564772.766
20
6589758.887
30
0.000
11
564772.766
21
6589758.887
31
0.000
8
0
6
XKITLINE00
62
1
0
LINE
10
564772.766
20
6589758.887
30
0.000
11
564772.766
21
6589758.887
31
0.000
8
0
6
XKITLINE00
62
1
0
LINE
10
564772.752
20
6589758.897
30
0.000
11
564772.743
21
6589758.897
31
0.000
8
0
6
XKITLINE00
62
1
0
LINE
10
564772.740
20
6589758.894
30
0.000
11
564772.740
21
6589758.879
31
0.000
8
0
6
XKITLINE00
62
1
0
LINE
10
564772.752
20
6589758.876
30
0.000
11
564772.743
21
6589758.876
31
0.000
8
0
6
XKITLINE00
62
1
0
LINE
10
564772.752
20
6589758.876
30
0.000
11
564772.752
21
6589758.887
31
0.000
8
0
6
XKITLINE00
62
1
0
LINE
10
564772.752
20
6589758.887
30
0.000
11
564772.749
21
6589758.887
31
0.000
8
0
6
XKITLINE00
62
1
0
ARC
10
564772.743
20
6589758.894
30
0.000
40
0.003
50
89.024
51
-179.024
8
0
6
XKITLINE00
62
1
0
ARC
10
564772.743
20
6589758.879
30
0.000
40
0.003
50
-175.601
51
-94.399
8
0
6
XKITLINE00
62
1
0
CIRCLE
10
564782.746
20
6589768.887
30
0.000
40
4.500
8
0
6
XKITLINE00
62
1
0
LINE
10
564786.346
20
6589768.887
30
0.000
11
564786.346
21
6589768.887
31
0.000
8
0
6
XKITLINE00
62
1
0
LINE
10
564786.346
20
6589768.887
30
0.000
11
564786.346
21
6589768.887
31
0.000
8
0
6
XKITLINE00
62
1
0
LINE
10
564783.826
20
6589770.777
30
0.000
11
564782.206
21
6589770.777
31
0.000
8
0
6
XKITLINE00
62
1
0
LINE
10
564781.666
20
6589770.237
30
0.000
11
564781.666
21
6589767.537
31
0.000
8
0
6
XKITLINE00
62
1
0
LINE
10
564783.826
20
6589766.997
30
0.000
11
564782.206
21
6589766.997
31
0.000
8
0
6
XKITLINE00
62
1
0
LINE
10
564783.826
20
6589766.997
30
0.000
11
564783.826
21
6589768.887
31
0.000
8
0
6
XKITLINE00
62
1
0
LINE
10
564783.826
20
6589768.887
30
0.000
11
564783.286
21
6589768.887
31
0.000
8
0
6
XKITLINE00
62
1
0
ARC
10
564782.197
20
6589770.246
30
0.000
40
0.531
50
89.024
51
-179.024
8
0
6
XKITLINE00
62
1
0
ARC
10
564782.251
20
6589767.582
30
0.000
40
0.587
50
-175.601
51
-94.399
8
0
6
XKITLINE00
62
1
0
CIRCLE
10
564772.922
20
6589758.891
30
0.000
40
0.025
8
0
6
XKITLINE00
62
1
0
LINE
10
564772.942
20
6589758.891
30
0.000
11
564772.942
21
6589758.891
31
0.000
8
0
6
XKITLINE00
62
1
0
LINE
10
564772.942
20
6589758.891
30
0.000
11
564772.942
21
6589758.891
31
0.000
8
0
6
XKITLINE00
62
1
0
LINE
10
564772.928
20
6589758.901
30
0.000
11
564772.919
21
6589758.901
31
0.000
8
0
6
XKITLINE00
62
1
0
LINE
10
564772.916
20
6589758.898
30
0.000
11
564772.916
21
6589758.883
31
0.000
8
0
6
XKITLINE00
62
1
0
LINE
10
564772.928
20
6589758.880
30
0.000
11
564772.919
21
6589758.880
31
0.000
8
0
6
XKITLINE00
62
1
0
LINE
10
564772.928
20
6589758.880
30
0.000
11
564772.928
21
6589758.891
31
0.000
8
0
6
XKITLINE00
62
1
0
LINE
10
564772.928
20
6589758.891
30
0.000
11
564772.925
21
6589758.891
31
0.000
8
0
6
XKITLINE00
62
1
0
ARC
10
564772.919
20
6589758.898
30
0.000
40
0.003
50
89.024
51
-179.024
8
0
6
XKITLINE00
62
1
0
ARC
10
564772.919
20
6589758.883
30
0.000
40
0.003
50
-175.601
51
-94.399
8
0
6
XKITLINE00
62
1
0
CIRCLE
10
564782.922
20
6589768.891
30
0.000
40
4.500
8
0
6
XKITLINE00
62
1
0
LINE
10
564786.522
20
6589768.891
30
0.000
11
564786.522
21
6589768.891
31
0.000
8
0
6
XKITLINE00
62
1
0
LINE
10
564786.522
20
6589768.891
30
0.000
11
564786.522
21
6589768.891
31
0.000
8
0
6
XKITLINE00
62
1
0
LINE
10
564784.002
20
6589770.781
30
0.000
11
564782.382
21
6589770.781
31
0.000
8
0
6
XKITLINE00
62
1
0
LINE
10
564781.842
20
6589770.241
30
0.000
11
564781.842
21
6589767.541
31
0.000
8
0
6
XKITLINE00
62
1
0
LINE
10
564784.002
20
6589767.001
30
0.000
11
564782.382
21
6589767.001
31
0.000
8
0
6
XKITLINE00
62
1
0
LINE
10
564784.002
20
6589767.001
30
0.000
11
564784.002
21
6589768.891
31
0.000
8
0
6
XKITLINE00
62
1
0
LINE
10
564784.002
20
6589768.891
30
0.000
11
564783.462
21
6589768.891
31
0.000
8
0
6
XKITLINE00
62
1
0
ARC
10
564782.373
20
6589770.250
30
0.000
40
0.531
50
89.024
51
-179.024
8
0
6
XKITLINE00
62
1
0
ARC
10
564782.427
20
6589767.586
30
0.000
40
0.587
50
-175.601
51
-94.399
8
0
6
XKITLINE00
62
1
0
LINE
10
564775.754
20
6589718.320
30
0.000
11
564775.754
21
6589718.320
31
0.000
8
0
6
XKITLINE00
62
5
0
LINE
10
564775.754
20
6589718.320
30
0.000
11
564775.754
21
6589718.320
31
0.000
8
0
6
XKITLINE00
62
5
0
LINE
10
564772.734
20
6589759.174
30
0.000
11
564772.734
21
6589759.194
31
0.000
8
0
6
XKITLINE00
62
7
0
LINE
10
564772.734
20
6589759.194
30
0.000
11
564772.718
21
6589759.194
31
0.000
8
0
6
XKITLINE00
62
7
0
LINE
10
564772.718
20
6589759.194
30
0.000
11
564772.718
21
6589759.174
31
0.000
8
0
6
XKITLINE00
62
7
0
LINE
10
564772.718
20
6589759.174
30
0.000
11
564772.734
21
6589759.174
31
0.000
8
0
6
XKITLINE00
62
7
0
LINE
10
564772.734
20
6589759.188
30
0.000
11
564772.718
21
6589759.188
31
0.000
8
0
6
XKITLINE00
62
7
0
LINE
10
564772.719
20
6589759.179
30
0.000
11
564772.719
21
6589759.183
31
0.000
8
0
6
XKITLINE00
62
7
0
LINE
10
564772.719
20
6589759.180
30
0.000
11
564772.722
21
6589759.182
31
0.000
8
0
6
XKITLINE00
62
7
0
LINE
10
564772.720
20
6589759.181
30
0.000
11
564772.722
21
6589759.179
31
0.000
8
0
6
XKITLINE00
62
7
0
LINE
10
564772.724
20
6589759.183
30
0.000
11
564772.725
21
6589759.179
31
0.000
8
0
6
XKITLINE00
62
7
0
LINE
10
564772.725
20
6589759.179
30
0.000
11
564772.726
21
6589759.183
31
0.000
8
0
6
XKITLINE00
62
7
0
LINE
10
564772.726
20
6589759.183
30
0.000
11
564772.728
21
6589759.179
31
0.000
8
0
6
XKITLINE00
62
7
0
LINE
10
564772.728
20
6589759.179
30
0.000
11
564772.729
21
6589759.183
31
0.000
8
0
6
XKITLINE00
62
7
0
LINE
10
564772.731
20
6589759.183
30
0.000
11
564772.731
21
6589759.179
31
0.000
8
0
6
XKITLINE00
62
7
0
LINE
10
564772.734
20
6589759.181
30
0.000
11
564772.734
21
6589759.179
31
0.000
8
0
6
XKITLINE00
62
7
0
ARC
10
564772.732
20
6589759.180
30
0.000
40
0.002
50
29.745
51
150.255
8
0
6
XKITLINE00
62
7
0
LINE
10
564772.757
20
6589759.312
30
0.000
11
564772.757
21
6589759.317
31
0.000
8
0
6
XKITLINE00
62
7
0
LINE
10
564772.757
20
6589759.317
30
0.000
11
564772.742
21
6589759.317
31
0.000
8
0
6
XKITLINE00
62
7
0
LINE
10
564772.742
20
6589759.317
30
0.000
11
564772.742
21
6589759.312
31
0.000
8
0
6
XKITLINE00
62
7
0
LINE
10
564772.757
20
6589759.312
30
0.000
11
564772.742
21
6589759.312
31
0.000
8
0
6
XKITLINE00
62
7
0
LINE
10
564772.744
20
6589759.316
30
0.000
11
564772.744
21
6589759.313
31
0.000
8
0
6
XKITLINE00
62
4
0
LINE
10
564772.744
20
6589759.314
30
0.000
11
564772.746
21
6589759.316
31
0.000
8
0
6
XKITLINE00
62
4
0
LINE
10
564772.744
20
6589759.315
30
0.000
11
564772.746
21
6589759.313
31
0.000
8
0
6
XKITLINE00
62
4
0
LINE
10
564772.746
20
6589759.313
30
0.000
11
564772.747
21
6589759.316
31
0.000
8
0
6
XKITLINE00
62
4
0
LINE
10
564772.747
20
6589759.316
30
0.000
11
564772.748
21
6589759.313
31
0.000
8
0
6
XKITLINE00
62
4
0
LINE
10
564772.747
20
6589759.314
30
0.000
11
564772.748
21
6589759.314
31
0.000
8
0
6
XKITLINE00
62
4
0
LINE
10
564772.750
20
6589759.316
30
0.000
11
564772.749
21
6589759.316
31
0.000
8
0
6
XKITLINE00
62
4
0
LINE
10
564772.749
20
6589759.316
30
0.000
11
564772.749
21
6589759.313
31
0.000
8
0
6
XKITLINE00
62
4
0
LINE
10
564772.750
20
6589759.313
30
0.000
11
564772.749
21
6589759.313
31
0.000
8
0
6
XKITLINE00
62
4
0
LINE
10
564772.752
20
6589759.316
30
0.000
11
564772.752
21
6589759.314
31
0.000
8
0
6
XKITLINE00
62
4
0
LINE
10
564772.754
20
6589759.316
30
0.000
11
564772.754
21
6589759.314
31
0.000
8
0
6
XKITLINE00
62
4
0
ARC
10
564772.750
20
6589759.314
30
0.000
40
0.001
50
-70.258
51
69.092
8
0
6
XKITLINE00
62
4
0
ARC
10
564772.753
20
6589759.314
30
0.000
40
0.001
50
-171.275
51
-7.525
8
0
6
XKITLINE00
62
4
0
LINE
10
564772.789
20
6589759.308
30
0.000
11
564772.789
21
6589759.309
31
0.000
8
0
6
XKITLINE00
62
5
0
LINE
10
564772.790
20
6589759.309
30
0.000
11
564772.789
21
6589759.309
31
0.000
8
0
6
XKITLINE00
62
5
0
LINE
10
564929.316
20
6589712.043
30
0.000
11
564930.178
21
6589714.917
31
0.000
8
0
6
XKITLINE00
62
3
0
LINE
10
564927.400
20
6589716.794
30
0.000
11
564933.530
21
6589714.955
31
0.000
8
0
6
XKITLINE00
62
3
0
LINE
10
564933.530
20
6589714.955
30
0.000
11
564933.243
21
6589713.997
31
0.000
8
0
6
XKITLINE00
62
3
0
LINE
10
564933.243
20
6589713.997
30
0.000
11
564927.113
21
6589715.836
31
0.000
8
0
6
XKITLINE00
62
3
0
LINE
10
564927.113
20
6589715.836
30
0.000
11
564927.400
21
6589716.794
31
0.000
8
0
6
XKITLINE00
62
3
0
LINE
10
564927.400
20
6589716.794
30
0.000
11
564927.400
21
6589716.794
31
0.000
8
0
6
XKITLINE00
62
3
0
LINE
10
564806.496
20
6589783.828
30
0.000
11
564808.760
21
6589785.797
31
0.000
8
0
6
XKITLINE00
62
3
0
LINE
10
564807.415
20
6589788.868
30
0.000
11
564811.614
21
6589784.038
31
0.000
8
0
6
XKITLINE00
62
3
0
LINE
10
564811.614
20
6589784.038
30
0.000
11
564810.860
21
6589783.382
31
0.000
8
0
6
XKITLINE00
62
3
0
LINE
10
564810.860
20
6589783.382
30
0.000
11
564806.660
21
6589788.211
31
0.000
8
0
6
XKITLINE00
62
3
0
LINE
10
564806.660
20
6589788.211
30
0.000
11
564807.415
21
6589788.868
31
0.000
8
0
6
XKITLINE00
62
3
0
LINE
10
564807.415
20
6589788.868
30
0.000
11
564807.415
21
6589788.868
31
0.000
8
0
6
XKITLINE00
62
3
0
LINE
10
564709.578
20
6589800.172
30
0.000
11
564709.578
21
6589803.172
31
0.000
8
0
6
XKITLINE00
62
3
0
LINE
10
564706.378
20
6589804.172
30
0.000
11
564712.778
21
6589804.172
31
0.000
8
0
6
XKITLINE00
62
3
0
LINE
10
564712.778
20
6589804.172
30
0.000
11
564712.778
21
6589803.172
31
0.000
8
0
6
XKITLINE00
62
3
0
LINE
10
564712.778
20
6589803.172
30
0.000
11
564706.378
21
6589803.172
31
0.000
8
0
6
XKITLINE00
62
3
0
LINE
10
564706.378
20
6589803.172
30
0.000
11
564706.378
21
6589804.172
31
0.000
8
0
6
XKITLINE00
62
3
0
LINE
10
564706.378
20
6589804.172
30
0.000
11
564706.378
21
6589804.172
31
0.000
8
0
6
XKITLINE00
62
3
0
TEXT
10
564772.635
20
6589759.282
30
0.000
40
0.010
41
1.000
1
AHXAMK-W.3x120
50
90.000
51
0.000
8
0
62
7
0
TEXT
10
564772.655
20
6589759.282
30
0.000
40
0.010
41
1.000
1
Lillevälja aj.
50
90.000
51
0.000
8
0
62
7
0
TEXT
10
564772.736
20
6589759.295
30
0.000
40
0.010
41
1.000
1
3xHXCMK.1x35
50
90.000
51
0.000
8
0
62
7
0
TEXT
10
564772.530
20
6589759.282
30
0.000
40
0.010
41
1.000
1
AHXAMK-W.3x120
50
90.000
51
0.000
8
0
62
7
0
TEXT
10
564772.550
20
6589759.310
30
0.000
40
0.010
41
1.000
1
AJ14220
50
90.000
51
0.000
8
0
62
7
0
TEXT
10
564772.787
20
6589759.547
30
0.000
40
0.015
41
1.000
1
10kV
50
0.000
51
0.000
8
0
62
7
0
TEXT
10
564772.739
20
6589758.961
30
0.000
40
0.010
41
1.000
1
AXPK.4x240
50
90.000
51
0.000
8
0
62
7
0
TEXT
10
564772.759
20
6589758.973
30
0.000
40
0.010
41
1.000
1
38697JK
50
90.000
51
0.000
8
0
62
7
0
TEXT
10
564772.825
20
6589758.961
30
0.000
40
0.010
41
1.000
1
AXPK.4x240
50
90.000
51
0.000
8
0
62
7
0
TEXT
10
564772.845
20
6589758.953
30
0.000
40
0.010
41
1.000
1
õl mast nr 1
50
90.000
51
0.000
8
0
62
7
0
TEXT
10
564772.911
20
6589758.961
30
0.000
40
0.010
41
1.000
1
AXPK.4x240
50
90.000
51
0.000
8
0
62
7
0
TEXT
10
564772.931
20
6589758.973
30
0.000
40
0.010
41
1.000
1
38698JK
50
90.000
51
0.000
8
0
62
7
0
TEXT
10
564772.997
20
6589758.961
30
0.000
40
0.010
41
1.000
1
AXPK.4x240
50
90.000
51
0.000
8
0
62
7
0
TEXT
10
564773.017
20
6589758.973
30
0.000
40
0.010
41
1.000
1
40137JK
50
90.000
51
0.000
8
0
62
7
0
TEXT
10
564772.568
20
6589758.961
30
0.000
40
0.010
41
1.000
1
AXPK.4x120
50
90.000
51
0.000
8
0
62
7
0
TEXT
10
564772.588
20
6589758.973
30
0.000
40
0.010
41
1.000
1
11511LK
50
90.000
51
0.000
8
0
62
7
0
TEXT
10
564772.653
20
6589758.961
30
0.000
40
0.010
41
1.000
1
AXPK.4x120
50
90.000
51
0.000
8
0
62
7
0
TEXT
10
564772.673
20
6589758.953
30
0.000
40
0.010
41
1.000
1
õl mast nr 1
50
90.000
51
0.000
8
0
62
7
0
TEXT
10
564772.482
20
6589758.961
30
0.000
40
0.010
41
1.000
1
AXPK.4x120
50
90.000
51
0.000
8
0
62
7
0
TEXT
10
564772.502
20
6589758.953
30
0.000
40
0.010
41
1.000
1
õl mast nr 1
50
90.000
51
0.000
8
0
62
7
0
TEXT
10
564952.837
20
6589681.320
30
0.000
40
0.010
41
1.000
1
AXPK.4x120
50
90.221
51
0.000
8
0
62
7
0
TEXT
10
564952.857
20
6589681.332
30
0.000
40
0.010
41
1.000
1
38698JK
50
90.221
51
0.000
8
0
62
7
0
TEXT
10
564953.009
20
6589681.324
30
0.000
40
0.010
41
1.000
1
AXPK.4x70
50
90.221
51
0.000
8
0
62
7
0
TEXT
10
564953.029
20
6589681.332
30
0.000
40
0.010
41
1.000
1
40507JK
50
90.221
51
0.000
8
0
62
7
0
TEXT
10
564952.923
20
6589681.324
30
0.000
40
0.010
41
1.000
1
AXPK.4x70
50
90.221
51
0.000
8
0
62
7
0
TEXT
10
564952.943
20
6589681.292
30
0.000
40
0.010
41
1.000
1
Postijaama tee 10
50
90.221
51
0.000
8
0
62
7
0
TEXT
10
564790.377
20
6589753.871
30
0.000
40
4.000
41
1.000
1
36365
50
343.180
51
0.000
8
0
62
7
0
TEXT
10
564721.467
20
6589758.330
30
0.000
40
4.000
41
1.000
1
37828
50
342.303
51
0.000
8
0
62
7
0
TEXT
10
564784.878
20
6589795.421
30
0.000
40
4.000
41
1.000
1
36364
50
76.525
51
0.000
8
0
62
7
0
TEXT
10
564788.258
20
6589749.505
30
0.000
40
4.000
41
1.000
1
36366
50
343.225
51
0.000
8
0
62
7
0
TEXT
10
564950.327
20
6589679.094
30
0.000
40
4.000
41
1.000
1
35398
50
83.267
51
0.000
8
0
62
7
0
TEXT
10
564770.454
20
6589767.753
30
0.000
40
4.000
41
1.000
1
36363
50
78.516
51
0.000
8
0
62
7
0
TEXT
10
564938.447
20
6589650.099
30
0.000
40
4.000
41
1.000
1
35399
50
-12.034
51
0.000
8
0
62
7
0
TEXT
10
564787.633
20
6589690.735
30
0.000
40
4.000
41
1.000
1
AMKA.3x70+95
50
336.189
51
0.000
8
0
62
7
0
TEXT
10
564832.008
20
6589670.519
30
0.000
40
4.000
41
1.000
1
AMKA.3x70+95
50
-23.242
51
0.000
8
0
62
7
0
TEXT
10
564787.283
20
6589741.620
30
0.000
40
4.000
41
1.000
1
KPL220564
50
343.200
51
0.000
8
0
62
7
0
TEXT
10
564778.470
20
6589768.658
30
0.000
40
4.000
41
1.000
1
26310
50
77.533
51
0.000
8
0
62
7
0
TEXT
10
564912.791
20
6589723.611
30
0.000
40
6.600
41
0.900
1
Vallamaja
50
0.000
51
0.000
8
0
62
7
0
TEXT
10
564759.035
20
6589698.786
30
0.000
40
6.600
41
0.900
1
4
50
0.000
51
0.000
8
0
62
7
0
TEXT
10
564877.018
20
6589679.078
30
0.000
40
6.600
41
0.900
1
8
50
0.000
51
0.000
8
0
62
7
0
TEXT
10
564866.509
20
6589639.461
30
0.000
40
6.600
41
0.900
1
8
50
0.000
51
0.000
8
0
62
7
0
TEXT
10
564788.942
20
6589764.663
30
0.000
40
6.600
41
0.900
1
Bensiinij.-kohvik
50
0.000
51
0.000
8
0
62
7
0
TEXT
10
564748.025
20
6589811.141
30
0.000
40
6.600
41
0.900
1
4
50
0.000
51
0.000
8
0
62
7
0
TEXT
10
564772.758
20
6589759.175
30
0.000
40
0.015
41
1.000
1
1000/5A
50
0.000
51
0.000
8
0
62
7
0
TEXT
10
564772.766
20
6589759.117
30
0.000
40
0.015
41
1.000
1
0,4kV
50
0.000
51
0.000
8
0
62
7
0
TEXT
10
564903.634
20
6589684.896
30
0.000
40
5.500
41
0.900
1
110845LK
50
0.000
51
0.000
8
0
62
1
0
TEXT
10
564903.369
20
6589691.260
30
0.000
40
5.500
41
0.900
1
110513LK
50
0.000
51
0.000
8
0
62
1
0
TEXT
10
564789.224
20
6589757.411
30
0.000
40
5.500
41
0.900
1
11511LK
50
0.000
51
0.000
8
0
62
1
0
TEXT
10
564790.408
20
6589723.991
30
0.000
40
5.500
41
0.900
1
LK235027
50
0.000
51
0.000
8
0
62
5
0
TEXT
10
564904.629
20
6589697.955
30
0.000
40
5.500
41
0.900
1
38698JK
50
0.000
51
0.000
8
0
62
1
0
TEXT
10
564772.508
20
6589759.078
30
0.000
40
0.018
41
1.000
1
F1
50
0.000
51
0.000
8
0
62
7
0
TEXT
10
564772.508
20
6589759.068
30
0.000
40
0.010
41
1.000
1
160A
50
0.000
51
0.000
8
0
62
7
0
TEXT
10
564772.938
20
6589759.078
30
0.000
40
0.018
41
1.000
1
F6
50
0.000
51
0.000
8
0
62
7
0
TEXT
10
564772.938
20
6589759.068
30
0.000
40
0.010
41
1.000
1
NH 2
50
0.000
51
0.000
8
0
62
7
0
TEXT
10
564772.938
20
6589759.058
30
0.000
40
0.010
41
1.000
1
315/400
50
0.000
51
0.000
8
0
62
7
0
TEXT
10
564952.955
20
6589681.451
30
0.000
40
0.018
41
1.000
1
F1
50
0.000
51
0.000
8
0
62
7
0
TEXT
10
564952.955
20
6589681.441
30
0.000
40
0.010
41
1.000
1
NH 00
50
0.000
51
0.000
8
0
62
7
0
TEXT
10
564952.955
20
6589681.431
30
0.000
40
0.010
41
1.000
1
63/160
50
0.000
51
0.000
8
0
62
7
0
TEXT
10
564953.041
20
6589681.451
30
0.000
40
0.018
41
1.000
1
F2
50
0.000
51
0.000
8
0
62
7
0
TEXT
10
564953.041
20
6589681.441
30
0.000
40
0.010
41
1.000
1
NH 000
50
0.000
51
0.000
8
0
62
7
0
TEXT
10
564953.041
20
6589681.431
30
0.000
40
0.010
41
1.000
1
63/160
50
0.000
51
0.000
8
0
62
7
0
TEXT
10
564772.766
20
6589759.078
30
0.000
40
0.018
41
1.000
1
F4
50
0.000
51
0.000
8
0
62
7
0
TEXT
10
564772.766
20
6589759.068
30
0.000
40
0.010
41
1.000
1
NH 2
50
0.000
51
0.000
8
0
62
7
0
TEXT
10
564772.766
20
6589759.058
30
0.000
40
0.010
41
1.000
1
250/400
50
0.000
51
0.000
8
0
62
7
0
TEXT
10
564772.852
20
6589759.078
30
0.000
40
0.018
41
1.000
1
F5
50
0.000
51
0.000
8
0
62
7
0
TEXT
10
564772.852
20
6589759.068
30
0.000
40
0.010
41
1.000
1
NH 2
50
0.000
51
0.000
8
0
62
7
0
TEXT
10
564772.852
20
6589759.058
30
0.000
40
0.010
41
1.000
1
160/400
50
0.000
51
0.000
8
0
62
7
0
TEXT
10
564773.023
20
6589759.078
30
0.000
40
0.018
41
1.000
1
F7
50
0.000
51
0.000
8
0
62
7
0
TEXT
10
564773.023
20
6589759.068
30
0.000
40
0.010
41
1.000
1
NH 2
50
0.000
51
0.000
8
0
62
7
0
TEXT
10
564773.023
20
6589759.058
30
0.000
40
0.010
41
1.000
1
160/400
50
0.000
51
0.000
8
0
62
7
0
TEXT
10
564772.594
20
6589759.079
30
0.000
40
0.018
41
1.000
1
F2
50
0.000
51
0.000
8
0
62
7
0
TEXT
10
564772.594
20
6589759.069
30
0.000
40
0.010
41
1.000
1
NH 2
50
0.000
51
0.000
8
0
62
7
0
TEXT
10
564772.594
20
6589759.059
30
0.000
40
0.010
41
1.000
1
250/400
50
0.000
51
0.000
8
0
62
7
0
TEXT
10
564772.680
20
6589759.078
30
0.000
40
0.018
41
1.000
1
F3
50
0.000
51
0.000
8
0
62
7
0
TEXT
10
564772.680
20
6589759.068
30
0.000
40
0.010
41
1.000
1
NH 2
50
0.000
51
0.000
8
0
62
7
0
TEXT
10
564772.680
20
6589759.058
30
0.000
40
0.010
41
1.000
1
160/400
50
0.000
51
0.000
8
0
62
7
0
TEXT
10
564772.632
20
6589758.923
30
0.000
40
0.015
41
0.900
1
36363
50
0.000
51
0.000
8
0
62
4
0
TEXT
10
564772.460
20
6589758.924
30
0.000
40
0.015
41
0.900
1
36362
50
0.000
51
0.000
8
0
62
4
0
TEXT
10
564772.716
20
6589758.923
30
0.000
40
0.015
41
0.900
1
36364
50
0.000
51
0.000
8
0
62
4
0
TEXT
10
564772.976
20
6589758.924
30
0.000
40
0.015
41
0.900
1
37828
50
0.000
51
0.000
8
0
62
4
0
TEXT
10
564772.891
20
6589758.924
30
0.000
40
0.015
41
0.900
1
36366
50
0.000
51
0.000
8
0
62
4
0
TEXT
10
564952.992
20
6589681.271
30
0.000
40
0.015
41
0.900
1
35400
50
0.000
51
0.000
8
0
62
4
0
TEXT
10
564772.545
20
6589758.924
30
0.000
40
0.015
41
0.900
1
36361
50
0.000
51
0.000
8
0
62
4
0
TEXT
10
564772.804
20
6589758.924
30
0.000
40
0.015
41
0.900
1
36365
50
0.000
51
0.000
8
0
62
4
0
TEXT
10
564952.820
20
6589681.272
30
0.000
40
0.015
41
0.900
1
35398
50
0.000
51
0.000
8
0
62
4
0
TEXT
10
564952.906
20
6589681.272
30
0.000
40
0.015
41
0.900
1
35399
50
0.000
51
0.000
8
0
62
4
0
TEXT
10
564772.769
20
6589759.257
30
0.000
40
0.018
41
1.000
1
T
50
0.000
51
0.000
8
0
62
7
0
TEXT
10
564772.769
20
6589759.239
30
0.000
40
0.018
41
1.000
1
 400kVA
50
0.000
51
0.000
8
0
62
7
0
TEXT
10
564772.764
20
6589759.436
30
0.000
40
0.015
41
1.000
1
40A
50
0.000
51
0.000
8
0
62
7
0
TEXT
10
564772.764
20
6589759.411
30
0.000
40
0.015
41
1.000
1
CEF
50
0.000
51
0.000
8
0
62
7
0
TEXT
10
564772.658
20
6589759.500
30
0.000
40
0.018
41
1.000
1
36
50
0.000
51
0.000
8
0
62
7
0
TEXT
10
564772.551
20
6589759.500
30
0.000
40
0.018
41
1.000
1
16
50
0.000
51
0.000
8
0
62
7
0
TEXT
10
564772.766
20
6589759.499
30
0.000
40
0.018
41
1.000
1
56
50
0.000
51
0.000
8
0
62
7
0
TEXT
10
564772.856
20
6589759.499
30
0.000
40
0.018
41
1.000
1
76
50
0.000
51
0.000
8
0
62
7
0
TEXT
10
564772.768
20
6589759.374
30
0.000
40
0.018
41
1.000
1
54
50
0.000
51
0.000
8
0
62
7
0
TEXT
10
564772.853
20
6589759.438
30
0.000
40
0.018
41
1.000
1
74
50
0.000
51
0.000
8
0
62
7
0
TEXT
10
564772.550
20
6589759.437
30
0.000
40
0.018
41
1.000
1
14
50
0.000
51
0.000
8
0
62
7
0
TEXT
10
564772.656
20
6589759.437
30
0.000
40
0.018
41
1.000
1
34
50
0.000
51
0.000
8
0
62
7
0
TEXT
10
564714.084
20
6589802.217
30
0.000
40
6.000
41
0.950
1
3
50
0.000
51
0.000
8
0
62
7
0
TEXT
10
564737.678
20
6589796.838
30
0.000
40
6.000
41
0.950
1
2
50
0.000
51
0.000
8
0
62
7
0
TEXT
10
564779.059
20
6589822.336
30
0.000
40
6.000
41
0.950
1
5
50
0.000
51
0.000
8
0
62
7
0
TEXT
10
564905.058
20
6589652.763
30
0.000
40
6.000
41
0.950
1
6
50
0.000
51
0.000
8
0
62
7
0
TEXT
10
564849.764
20
6589738.780
30
0.000
40
6.000
41
0.950
1
1
50
0.000
51
0.000
8
0
62
7
0
TEXT
10
564844.186
20
6589704.898
30
0.000
40
6.000
41
0.950
1
2
50
0.000
51
0.000
8
0
62
7
0
TEXT
10
564779.858
20
6589686.413
30
0.000
40
6.000
41
0.950
1
4
50
0.000
51
0.000
8
0
62
7
0
TEXT
10
564839.021
20
6589682.585
30
0.000
40
6.000
41
0.950
1
3
50
0.000
51
0.000
8
0
62
7
0
TEXT
10
564943.103
20
6589635.255
30
0.000
40
6.000
41
0.950
1
7
50
0.000
51
0.000
8
0
62
7
0
TEXT
10
564810.251
20
6589775.764
30
0.000
40
6.000
41
0.950
1
4
50
0.000
51
0.000
8
0
62
7
0
TEXT
10
564883.853
20
6589657.793
30
0.000
40
6.000
41
0.950
1
5
50
0.000
51
0.000
8
0
62
7
0
TEXT
10
564760.196
20
6589789.974
30
0.000
40
6.000
41
0.950
1
1
50
0.000
51
0.000
8
0
62
7
0
TEXT
10
564672.948
20
6589711.703
30
0.000
40
26.000
41
1.000
1
Muri
50
0.000
51
0.000
8
0
62
7
0
TEXT
10
564774.411
20
6589787.876
30
0.000
40
5.000
41
1.000
1
tee 8m
50
0.000
51
0.000
8
0
62
7
0
TEXT
10
564850.981
20
6589716.249
30
0.000
40
5.000
41
1.000
1
8,2m tee
50
-13.496
51
0.000
8
0
62
7
0
TEXT
10
564772.607
20
6589759.237
30
0.000
40
0.015
41
0.900
1
26310
50
0.000
51
0.000
8
0
62
4
0
TEXT
10
564772.488
20
6589759.235
30
0.000
40
0.015
41
0.900
1
KPL220564
50
0.000
51
0.000
8
0
62
4
0
TEXT
10
564860.127
20
6589837.636
30
0.000
40
3.000
41
1.000
1
24504:008:0948
50
0.000
51
0.000
8
0
62
30
0
TEXT
10
564798.345
20
6589833.136
30
0.000
40
3.000
41
1.000
1
Postijaama tee 5, Jõelähtme küla, Jõelähtme vald, Harju maakond
50
0.000
51
0.000
8
0
62
30
0
TEXT
10
564922.846
20
6589638.945
30
0.000
40
3.000
41
1.000
1
24504:008:1180
50
0.000
51
0.000
8
0
62
30
0
TEXT
10
564859.765
20
6589634.445
30
0.000
40
3.000
41
1.000
1
Postijaama tee 10, Jõelähtme küla, Jõelähtme vald, Harju maakond
50
0.000
51
0.000
8
0
62
30
0
TEXT
10
564821.482
20
6589671.667
30
0.000
40
3.000
41
1.000
1
24504:008:0298
50
0.000
51
0.000
8
0
62
30
0
TEXT
10
564759.700
20
6589667.167
30
0.000
40
3.000
41
1.000
1
Postijaama tee 6, Jõelähtme küla, Jõelähtme vald, Harju maakond
50
0.000
51
0.000
8
0
62
30
0
TEXT
10
564917.239
20
6589736.706
30
0.000
40
3.000
41
1.000
1
Postijaama tee 7, Jõelähtme küla, Jõelähtme vald, Harju maakond
50
0.000
51
0.000
8
0
62
30
0
TEXT
10
564720.967
20
6589706.714
30
0.000
40
3.000
41
1.000
1
24501:001:2304
50
0.000
51
0.000
8
0
62
30
0
TEXT
10
564659.185
20
6589702.214
30
0.000
40
3.000
41
1.000
1
Postijaama tee 4, Jõelähtme küla, Jõelähtme vald, Harju maakond
50
0.000
51
0.000
8
0
62
30
0
TEXT
10
564753.803
20
6589707.093
30
0.000
40
3.000
41
1.000
1
24501:001:2303
50
0.000
51
0.000
8
0
62
30
0
TEXT
10
564690.722
20
6589702.593
30
0.000
40
3.000
41
1.000
1
Postijaama tee 4a, Jõelähtme küla, Jõelähtme vald, Harju maakond
50
0.000
51
0.000
8
0
62
30
0
TEXT
10
564731.721
20
6589799.706
30
0.000
40
3.000
41
1.000
1
24504:008:1900
50
0.000
51
0.000
8
0
62
30
0
TEXT
10
564677.216
20
6589795.206
30
0.000
40
3.000
41
1.000
1
Muri tee 3, Jõelähtme küla, Jõelähtme vald, Harju maakond
50
0.000
51
0.000
8
0
62
30
0
TEXT
10
564688.955
20
6589811.593
30
0.000
40
3.000
41
1.000
1
24504:008:1870
50
0.000
51
0.000
8
0
62
30
0
TEXT
10
564912.269
20
6589820.331
30
0.000
40
3.000
41
1.000
1
Postijaama tee 7a, Jõelähtme küla, Jõelähtme vald, Harju maakond
50
0.000
51
0.000
8
0
62
30
0
TEXT
10
564873.510
20
6589657.929
30
0.000
40
3.000
41
1.000
1
24504:008:0580
50
0.000
51
0.000
8
0
62
30
0
TEXT
10
564811.728
20
6589653.429
30
0.000
40
3.000
41
1.000
1
Postijaama tee 8, Jõelähtme küla, Jõelähtme vald, Harju maakond
50
0.000
51
0.000
8
0
62
30
0
TEXT
10
564811.963
20
6589790.310
30
0.000
40
6.600
41
0.900
1
5
50
0.000
51
0.000
8
0
62
7
0
TEXT
10
564706.619
20
6589818.605
30
0.000
40
6.600
41
0.900
1
3
50
0.000
51
0.000
8
0
62
7
0
TEXT
10
564775.754
20
6589718.320
30
0.000
40
6.000
41
1.000
1
PK=3x16A
50
0.000
51
0.000
8
0
62
5
0
TEXT
10
564775.754
20
6589710.820
30
0.000
40
6.000
41
1.000
1
Ik=2,18kA
50
0.000
51
0.000
8
0
62
5
0
TEXT
10
564775.754
20
6589703.320
30
0.000
40
6.000
41
1.000
1
PLC
50
0.000
51
0.000
8
0
62
5
0
LINE
10
564646.805
20
6589632.959
30
0.000
11
564646.805
21
6589845.959
31
0.000
8
0
6
XKITLINE00
62
0
0
LINE
10
564646.805
20
6589845.959
30
0.000
11
564954.351
21
6589845.959
31
0.000
8
0
6
XKITLINE00
62
0
0
LINE
10
564954.351
20
6589845.959
30
0.000
11
564954.351
21
6589632.959
31
0.000
8
0
6
XKITLINE00
62
0
0
LINE
10
564954.351
20
6589632.959
30
0.000
11
564646.805
21
6589632.959
31
0.000
8
0
6
XKITLINE00
62
0
0
ENDSEC
0
EOF
