0
SECTION
2
HEADER
9
$EXTMIN
10
417716.080
20
6498123.455
9
$EXTMAX
10
418428.880
20
6498627.455
9
$LTSCALE
40
1
9
$TEXTSTYLE
7
STANDARD
0
ENDSEC
0
SECTION
2
TABLES
0
TABLE
2
LTYPE
70
4
0
LTYPE
2
XKITLINE00
70
64
3
XKITLINE00
72
65
73
0
40
0.00
0
LTYPE
2
XKITLINE01
70
64
3
XKITLINE01
72
65
73
2
40
2.0
49
1.0
49
-1.0
0
LTYPE
2
XKITLINE02
70
64
3
XKITLINE02
72
65
73
2
40
4.0
49
2.0
49
-2.0
0
LTYPE
2
XKITLINE03
70
64
3
XKITLINE03
72
65
73
4
40
5.0
49
3.0
49
-1.0
49
1.0
49
-1.0
0
ENDTAB
0
TABLE
2
STYLE
70
2
0
STYLE
2
XKITFONT
70
0
40
0.00
41
1.0
50
0.00
71
0
42
1.0
3
MONOTXT
0
ENDTAB
0
ENDSEC
0
SECTION
2
ENTITIES
0
TEXT
10
418002.400
20
6498502.400
30
0.000
40
0.015
41
1.000
1
6498500
50
0.000
51
0.000
8
0
62
7
0
TEXT
10
417997.600
20
6498502.400
30
0.000
40
0.015
41
1.000
1
418000
50
90.000
51
0.000
8
0
62
7
0
LINE
10
417775.376
20
6498479.157
30
0.000
11
417774.320
21
6498478.101
31
0.000
8
0
6
XKITLINE00
62
7
0
LINE
10
417774.320
20
6498479.157
30
0.000
11
417775.376
21
6498478.101
31
0.000
8
0
6
XKITLINE00
62
7
0
LINE
10
418208.555
20
6498318.598
30
0.000
11
418207.499
21
6498317.542
31
0.000
8
0
6
XKITLINE00
62
7
0
LINE
10
418207.499
20
6498318.598
30
0.000
11
418208.555
21
6498317.542
31
0.000
8
0
6
XKITLINE00
62
7
0
LINE
10
417740.856
20
6498515.762
30
0.000
11
417739.800
21
6498514.706
31
0.000
8
0
6
XKITLINE00
62
7
0
LINE
10
417739.800
20
6498515.762
30
0.000
11
417740.856
21
6498514.706
31
0.000
8
0
6
XKITLINE00
62
7
0
LINE
10
417950.887
20
6498379.157
30
0.000
11
417949.831
21
6498378.101
31
0.000
8
0
6
XKITLINE00
62
7
0
LINE
10
417949.831
20
6498379.157
30
0.000
11
417950.887
21
6498378.101
31
0.000
8
0
6
XKITLINE00
62
7
0
LINE
10
417852.266
20
6498273.536
30
0.000
11
417851.210
21
6498272.480
31
0.000
8
0
6
XKITLINE00
62
7
0
LINE
10
417851.210
20
6498273.536
30
0.000
11
417852.266
21
6498272.480
31
0.000
8
0
6
XKITLINE00
62
7
0
LINE
10
418079.274
20
6498415.778
30
0.000
11
418078.218
21
6498414.722
31
0.000
8
0
6
XKITLINE00
62
7
0
LINE
10
418078.218
20
6498415.778
30
0.000
11
418079.274
21
6498414.722
31
0.000
8
0
6
XKITLINE00
62
7
0
LINE
10
418003.126
20
6498520.114
30
0.000
11
418002.070
21
6498519.058
31
0.000
8
0
6
XKITLINE00
62
7
0
LINE
10
418002.070
20
6498520.114
30
0.000
11
418003.126
21
6498519.058
31
0.000
8
0
6
XKITLINE00
62
7
0
LINE
10
418244.657
20
6498153.927
30
0.000
11
418243.601
21
6498152.870
31
0.000
8
0
6
XKITLINE00
62
7
0
LINE
10
418243.601
20
6498153.927
30
0.000
11
418244.657
21
6498152.870
31
0.000
8
0
6
XKITLINE00
62
7
0
LINE
10
418046.821
20
6498328.747
30
0.000
11
418045.765
21
6498327.691
31
0.000
8
0
6
XKITLINE00
62
7
0
LINE
10
418045.765
20
6498328.747
30
0.000
11
418046.821
21
6498327.691
31
0.000
8
0
6
XKITLINE00
62
7
0
LINE
10
418165.192
20
6498321.266
30
0.000
11
418164.136
21
6498320.210
31
0.000
8
0
6
XKITLINE00
62
7
0
LINE
10
418164.136
20
6498321.266
30
0.000
11
418165.192
21
6498320.210
31
0.000
8
0
6
XKITLINE00
62
7
0
LINE
10
417959.637
20
6498478.192
30
0.000
11
417958.581
21
6498477.136
31
0.000
8
0
6
XKITLINE00
62
7
0
LINE
10
417958.581
20
6498478.192
30
0.000
11
417959.637
21
6498477.136
31
0.000
8
0
6
XKITLINE00
62
7
0
LINE
10
417939.614
20
6498551.653
30
0.000
11
417938.558
21
6498550.597
31
0.000
8
0
6
XKITLINE00
62
7
0
LINE
10
417938.558
20
6498551.653
30
0.000
11
417939.614
21
6498550.597
31
0.000
8
0
6
XKITLINE00
62
7
0
LINE
10
417825.930
20
6498475.110
30
0.000
11
417824.874
21
6498474.054
31
0.000
8
0
6
XKITLINE00
62
7
0
LINE
10
417824.874
20
6498475.110
30
0.000
11
417825.930
21
6498474.054
31
0.000
8
0
6
XKITLINE00
62
7
0
LINE
10
418130.102
20
6498264.469
30
0.000
11
418112.859
21
6498288.609
31
0.000
8
0
6
XKITLINE01
62
2
0
LINE
10
417937.891
20
6498423.469
30
0.000
11
417926.262
21
6498425.211
31
0.000
8
0
6
XKITLINE01
62
2
0
LINE
10
418141.430
20
6498272.422
30
0.000
11
418142.879
21
6498269.789
31
0.000
8
0
6
XKITLINE01
62
2
0
LINE
10
418129.762
20
6498289.180
30
0.000
11
418141.430
21
6498272.422
31
0.000
8
0
6
XKITLINE01
62
2
0
LINE
10
418114.648
20
6498309.500
30
0.000
11
418129.762
21
6498289.180
31
0.000
8
0
6
XKITLINE01
62
2
0
LINE
10
418097.551
20
6498329.898
30
0.000
11
418114.648
21
6498309.500
31
0.000
8
0
6
XKITLINE01
62
2
0
LINE
10
418080.219
20
6498348.488
30
0.000
11
418097.551
21
6498329.898
31
0.000
8
0
6
XKITLINE01
62
2
0
LINE
10
418061.648
20
6498366.391
30
0.000
11
418080.219
21
6498348.488
31
0.000
8
0
6
XKITLINE01
62
2
0
LINE
10
418042.090
20
6498383.551
30
0.000
11
418061.648
21
6498366.391
31
0.000
8
0
6
XKITLINE01
62
2
0
LINE
10
418021.211
20
6498399.910
30
0.000
11
418042.090
21
6498383.551
31
0.000
8
0
6
XKITLINE01
62
2
0
LINE
10
418000.230
20
6498413.910
30
0.000
11
418021.211
21
6498399.910
31
0.000
8
0
6
XKITLINE01
62
2
0
LINE
10
418114.648
20
6498309.500
30
0.000
11
418097.551
21
6498329.898
31
0.000
8
0
6
XKITLINE01
62
2
0
LINE
10
418129.762
20
6498289.180
30
0.000
11
418114.648
21
6498309.500
31
0.000
8
0
6
XKITLINE01
62
2
0
LINE
10
418141.430
20
6498272.422
30
0.000
11
418129.762
21
6498289.180
31
0.000
8
0
6
XKITLINE01
62
2
0
LINE
10
418164.898
20
6498285.930
30
0.000
11
418141.430
21
6498272.422
31
0.000
8
0
6
XKITLINE01
62
2
0
LINE
10
418139.699
20
6498343.230
30
0.000
11
418164.898
21
6498285.930
31
0.000
8
0
6
XKITLINE01
62
2
0
LINE
10
418164.879
20
6498353.879
30
0.000
11
418139.699
21
6498343.230
31
0.000
8
0
6
XKITLINE01
62
2
0
LINE
10
418149.160
20
6498387.531
30
0.000
11
418164.879
21
6498353.879
31
0.000
8
0
6
XKITLINE01
62
2
0
LINE
10
418159.719
20
6498396.480
30
0.000
11
418149.160
21
6498387.531
31
0.000
8
0
6
XKITLINE01
62
2
0
LINE
10
418165.051
20
6498405.410
30
0.000
11
418167.359
21
6498402.961
31
0.000
8
0
6
XKITLINE01
62
2
0
LINE
10
418161.570
20
6498409.102
30
0.000
11
418165.051
21
6498405.410
31
0.000
8
0
6
XKITLINE01
62
2
0
LINE
10
418156.039
20
6498415.648
30
0.000
11
418161.570
21
6498409.102
31
0.000
8
0
6
XKITLINE01
62
2
0
LINE
10
418167.359
20
6498402.961
30
0.000
11
418159.719
21
6498396.480
31
0.000
8
0
6
XKITLINE01
62
2
0
LINE
10
418021.211
20
6498399.910
30
0.000
11
418000.230
21
6498413.910
31
0.000
8
0
6
XKITLINE01
62
2
0
LINE
10
418042.090
20
6498383.551
30
0.000
11
418021.211
21
6498399.910
31
0.000
8
0
6
XKITLINE01
62
2
0
LINE
10
418061.648
20
6498366.391
30
0.000
11
418042.090
21
6498383.551
31
0.000
8
0
6
XKITLINE01
62
2
0
LINE
10
418080.219
20
6498348.488
30
0.000
11
418061.648
21
6498366.391
31
0.000
8
0
6
XKITLINE01
62
2
0
LINE
10
418097.551
20
6498329.898
30
0.000
11
418080.219
21
6498348.488
31
0.000
8
0
6
XKITLINE01
62
2
0
LINE
10
418134.820
20
6498445.898
30
0.000
11
418156.039
21
6498415.648
31
0.000
8
0
6
XKITLINE01
62
2
0
LINE
10
418131.270
20
6498451.379
30
0.000
11
418134.820
21
6498445.898
31
0.000
8
0
6
XKITLINE01
62
2
0
LINE
10
418118.090
20
6498473.711
30
0.000
11
418131.270
21
6498451.379
31
0.000
8
0
6
XKITLINE01
62
2
0
LINE
10
418106.840
20
6498492.781
30
0.000
11
418118.090
21
6498473.711
31
0.000
8
0
6
XKITLINE01
62
2
0
LINE
10
418091.730
20
6498525.578
30
0.000
11
418106.840
21
6498492.781
31
0.000
8
0
6
XKITLINE01
62
2
0
LINE
10
418067.059
20
6498512.891
30
0.000
11
418091.730
21
6498525.578
31
0.000
8
0
6
XKITLINE01
62
2
0
LINE
10
418012.629
20
6498484.910
30
0.000
11
418067.059
21
6498512.891
31
0.000
8
0
6
XKITLINE01
62
2
0
LINE
10
418182.801
20
6498164.129
30
0.000
11
418193.207
21
6498140.255
31
0.000
8
0
6
XKITLINE01
62
2
0
LINE
10
418170.262
20
6498191.359
30
0.000
11
418182.801
21
6498164.129
31
0.000
8
0
6
XKITLINE01
62
2
0
LINE
10
418161.320
20
6498209.340
30
0.000
11
418170.262
21
6498191.359
31
0.000
8
0
6
XKITLINE01
62
2
0
LINE
10
418150.141
20
6498230.859
30
0.000
11
418161.320
21
6498209.340
31
0.000
8
0
6
XKITLINE01
62
2
0
LINE
10
418140.879
20
6498247.090
30
0.000
11
418150.141
21
6498230.859
31
0.000
8
0
6
XKITLINE01
62
2
0
LINE
10
418130.102
20
6498264.469
30
0.000
11
418140.879
21
6498247.090
31
0.000
8
0
6
XKITLINE01
62
2
0
LINE
10
418129.070
20
6498263.680
30
0.000
11
418130.102
21
6498264.469
31
0.000
8
0
6
XKITLINE01
62
2
0
LINE
10
418078.480
20
6498225.340
30
0.000
11
418129.070
21
6498263.680
31
0.000
8
0
6
XKITLINE01
62
2
0
LINE
10
417987.891
20
6498325.441
30
0.000
11
418078.480
21
6498225.340
31
0.000
8
0
6
XKITLINE01
62
2
0
LINE
10
418078.480
20
6498225.340
30
0.000
11
417987.891
21
6498325.441
31
0.000
8
0
6
XKITLINE01
62
2
0
LINE
10
418129.070
20
6498263.680
30
0.000
11
418078.480
21
6498225.340
31
0.000
8
0
6
XKITLINE01
62
2
0
LINE
10
418130.102
20
6498264.469
30
0.000
11
418129.070
21
6498263.680
31
0.000
8
0
6
XKITLINE01
62
2
0
LINE
10
418112.859
20
6498288.609
30
0.000
11
418130.102
21
6498264.469
31
0.000
8
0
6
XKITLINE01
62
2
0
LINE
10
418100.172
20
6498305.230
30
0.000
11
418112.859
21
6498288.609
31
0.000
8
0
6
XKITLINE01
62
2
0
LINE
10
418086.391
20
6498321.500
30
0.000
11
418100.172
21
6498305.230
31
0.000
8
0
6
XKITLINE01
62
2
0
LINE
10
418076.609
20
6498332.102
30
0.000
11
418086.391
21
6498321.500
31
0.000
8
0
6
XKITLINE01
62
2
0
LINE
10
418061.930
20
6498347.102
30
0.000
11
418076.609
21
6498332.102
31
0.000
8
0
6
XKITLINE01
62
2
0
LINE
10
418045.078
20
6498362.551
30
0.000
11
418061.930
21
6498347.102
31
0.000
8
0
6
XKITLINE01
62
2
0
LINE
10
418026.371
20
6498378.230
30
0.000
11
418045.078
21
6498362.551
31
0.000
8
0
6
XKITLINE01
62
2
0
LINE
10
418025.430
20
6498375.949
30
0.000
11
418026.371
21
6498378.230
31
0.000
8
0
6
XKITLINE01
62
2
0
LINE
10
418023.949
20
6498374.551
30
0.000
11
418025.430
21
6498375.949
31
0.000
8
0
6
XKITLINE01
62
2
0
LINE
10
418018.059
20
6498370.871
30
0.000
11
418023.949
21
6498374.551
31
0.000
8
0
6
XKITLINE01
62
2
0
LINE
10
418014.020
20
6498367.000
30
0.000
11
418018.059
21
6498370.871
31
0.000
8
0
6
XKITLINE01
62
2
0
LINE
10
417999.320
20
6498346.012
30
0.000
11
418014.020
21
6498367.000
31
0.000
8
0
6
XKITLINE01
62
2
0
LINE
10
417827.301
20
6498184.090
30
0.000
11
417835.539
21
6498140.255
31
0.000
8
0
6
XKITLINE01
62
2
0
LINE
10
417804.141
20
6498440.281
30
0.000
11
417827.301
21
6498184.090
31
0.000
8
0
6
XKITLINE01
62
2
0
LINE
10
417732.880
20
6498370.809
30
0.000
11
417804.141
21
6498440.281
31
0.000
8
0
6
XKITLINE01
62
2
0
LINE
10
417892.219
20
6498441.871
30
0.000
11
417886.340
21
6498442.910
31
0.000
8
0
6
XKITLINE01
62
2
0
LINE
10
417985.172
20
6498530.852
30
0.000
11
417892.219
21
6498441.871
31
0.000
8
0
6
XKITLINE01
62
2
0
LINE
10
418012.629
20
6498484.910
30
0.000
11
417985.172
21
6498530.852
31
0.000
8
0
6
XKITLINE01
62
2
0
LINE
10
417862.109
20
6498446.012
30
0.000
11
417977.520
21
6498539.000
31
0.000
8
0
6
XKITLINE01
62
2
0
LINE
10
417886.340
20
6498442.910
30
0.000
11
417862.109
21
6498446.012
31
0.000
8
0
6
XKITLINE01
62
2
0
LINE
10
417862.949
20
6498479.930
30
0.000
11
417858.891
21
6498485.031
31
0.000
8
0
6
XKITLINE01
62
2
0
LINE
10
417850.828
20
6498448.930
30
0.000
11
417862.949
21
6498479.930
31
0.000
8
0
6
XKITLINE01
62
2
0
LINE
10
417850.410
20
6498447.852
30
0.000
11
417850.828
21
6498448.930
31
0.000
8
0
6
XKITLINE01
62
2
0
LINE
10
417862.109
20
6498446.012
30
0.000
11
417850.410
21
6498447.852
31
0.000
8
0
6
XKITLINE01
62
2
0
LINE
10
417977.520
20
6498539.000
30
0.000
11
417862.109
21
6498446.012
31
0.000
8
0
6
XKITLINE01
62
2
0
LINE
10
417835.020
20
6498519.441
30
0.000
11
417957.883
21
6498610.655
31
0.000
8
0
6
XKITLINE01
62
2
0
LINE
10
417858.891
20
6498485.031
30
0.000
11
417835.020
21
6498519.441
31
0.000
8
0
6
XKITLINE01
62
2
0
LINE
10
417957.883
20
6498610.655
30
0.000
11
417835.020
21
6498519.441
31
0.000
8
0
6
XKITLINE01
62
2
0
LINE
10
417830.969
20
6498605.309
30
0.000
11
417837.901
21
6498610.655
31
0.000
8
0
6
XKITLINE01
62
2
0
LINE
10
417795.148
20
6498577.262
30
0.000
11
417830.969
21
6498605.309
31
0.000
8
0
6
XKITLINE01
62
2
0
LINE
10
417835.020
20
6498519.441
30
0.000
11
417795.148
21
6498577.262
31
0.000
8
0
6
XKITLINE01
62
2
0
LINE
10
417830.969
20
6498605.309
30
0.000
11
417828.522
21
6498610.655
31
0.000
8
0
6
XKITLINE01
62
2
0
LINE
10
417837.901
20
6498610.655
30
0.000
11
417830.969
21
6498605.309
31
0.000
8
0
6
XKITLINE01
62
2
0
LINE
10
417986.719
20
6498405.551
30
0.000
11
417999.512
21
6498397.781
31
0.000
8
0
6
XKITLINE01
62
2
0
LINE
10
417973.602
20
6498412.340
30
0.000
11
417986.719
21
6498405.551
31
0.000
8
0
6
XKITLINE01
62
2
0
LINE
10
417963.930
20
6498416.230
30
0.000
11
417973.602
21
6498412.340
31
0.000
8
0
6
XKITLINE01
62
2
0
LINE
10
417950.148
20
6498420.828
30
0.000
11
417963.930
21
6498416.230
31
0.000
8
0
6
XKITLINE01
62
2
0
LINE
10
417926.262
20
6498425.211
30
0.000
11
417937.891
21
6498423.469
31
0.000
8
0
6
XKITLINE01
62
2
0
LINE
10
417835.539
20
6498140.255
30
0.000
11
417827.301
21
6498184.090
31
0.000
8
0
6
XKITLINE01
62
2
0
LINE
10
417827.301
20
6498184.090
30
0.000
11
417881.894
21
6498140.255
31
0.000
8
0
6
XKITLINE01
62
2
0
LINE
10
417897.580
20
6498140.255
30
0.000
11
417932.039
21
6498161.738
31
0.000
8
0
6
XKITLINE01
62
2
0
LINE
10
417932.039
20
6498161.738
30
0.000
11
417880.660
21
6498228.320
31
0.000
8
0
6
XKITLINE01
62
2
0
LINE
10
417987.891
20
6498325.441
30
0.000
11
417986.512
21
6498326.961
31
0.000
8
0
6
XKITLINE01
62
2
0
LINE
10
417880.660
20
6498228.320
30
0.000
11
417843.148
21
6498434.250
31
0.000
8
0
6
XKITLINE01
62
2
0
LINE
10
417843.148
20
6498434.250
30
0.000
11
417874.352
21
6498430.301
31
0.000
8
0
6
XKITLINE01
62
2
0
LINE
10
417874.352
20
6498430.301
30
0.000
11
417874.621
21
6498428.820
31
0.000
8
0
6
XKITLINE01
62
2
0
LINE
10
417874.621
20
6498428.820
30
0.000
11
417888.551
21
6498352.340
31
0.000
8
0
6
XKITLINE01
62
2
0
LINE
10
417888.551
20
6498352.340
30
0.000
11
417984.719
21
6498327.449
31
0.000
8
0
6
XKITLINE01
62
2
0
LINE
10
417984.719
20
6498327.449
30
0.000
11
417986.512
21
6498326.961
31
0.000
8
0
6
XKITLINE01
62
2
0
LINE
10
417986.512
20
6498326.961
30
0.000
11
417987.891
21
6498325.441
31
0.000
8
0
6
XKITLINE01
62
2
0
LINE
10
417986.512
20
6498326.961
30
0.000
11
417990.801
21
6498333.621
31
0.000
8
0
6
XKITLINE01
62
2
0
LINE
10
417990.801
20
6498333.621
30
0.000
11
417999.320
21
6498346.012
31
0.000
8
0
6
XKITLINE01
62
2
0
LINE
10
417970.461
20
6498428.770
30
0.000
11
417954.891
21
6498433.949
31
0.000
8
0
6
XKITLINE01
62
2
0
LINE
10
417938.840
20
6498437.691
30
0.000
11
417937.238
21
6498437.871
31
0.000
8
0
6
XKITLINE01
62
2
0
LINE
10
417937.238
20
6498437.871
30
0.000
11
417938.422
21
6498438.602
31
0.000
8
0
6
XKITLINE01
62
2
0
LINE
10
417938.422
20
6498438.602
30
0.000
11
418012.629
21
6498484.910
31
0.000
8
0
6
XKITLINE01
62
2
0
LINE
10
418000.230
20
6498413.910
30
0.000
11
417984.238
21
6498422.680
31
0.000
8
0
6
XKITLINE01
62
2
0
LINE
10
417984.238
20
6498422.680
30
0.000
11
417970.461
21
6498428.770
31
0.000
8
0
6
XKITLINE01
62
2
0
LINE
10
417954.891
20
6498433.949
30
0.000
11
417938.840
21
6498437.691
31
0.000
8
0
6
XKITLINE01
62
2
0
LINE
10
417850.828
20
6498448.930
30
0.000
11
417850.410
21
6498447.852
31
0.000
8
0
6
XKITLINE01
62
2
0
LINE
10
417732.880
20
6498528.379
30
0.000
11
417741.289
21
6498535.719
31
0.000
8
0
6
XKITLINE01
62
2
0
LINE
10
417741.289
20
6498535.719
30
0.000
11
417771.230
21
6498511.480
31
0.000
8
0
6
XKITLINE01
62
2
0
LINE
10
417771.230
20
6498511.480
30
0.000
11
417752.941
21
6498494.750
31
0.000
8
0
6
XKITLINE01
62
2
0
LINE
10
417752.941
20
6498494.750
30
0.000
11
417732.880
21
6498500.818
31
0.000
8
0
6
XKITLINE01
62
2
0
LINE
10
417811.379
20
6498510.270
30
0.000
11
417858.891
21
6498485.031
31
0.000
8
0
6
XKITLINE01
62
2
0
LINE
10
417858.891
20
6498485.031
30
0.000
11
417862.949
21
6498479.930
31
0.000
8
0
6
XKITLINE01
62
2
0
LINE
10
417862.949
20
6498479.930
30
0.000
11
417850.828
21
6498448.930
31
0.000
8
0
6
XKITLINE01
62
2
0
LINE
10
417850.410
20
6498447.852
30
0.000
11
417785.750
21
6498455.871
31
0.000
8
0
6
XKITLINE01
62
2
0
LINE
10
417785.750
20
6498455.871
30
0.000
11
417811.379
21
6498510.270
31
0.000
8
0
6
XKITLINE01
62
2
0
LINE
10
417932.039
20
6498161.738
30
0.000
11
417897.580
21
6498140.255
31
0.000
8
0
6
XKITLINE01
62
2
0
LINE
10
417804.141
20
6498440.281
30
0.000
11
417843.148
21
6498434.250
31
0.000
8
0
6
XKITLINE01
62
2
0
LINE
10
417843.148
20
6498434.250
30
0.000
11
417880.660
21
6498228.320
31
0.000
8
0
6
XKITLINE01
62
2
0
LINE
10
417880.660
20
6498228.320
30
0.000
11
417932.039
21
6498161.738
31
0.000
8
0
6
XKITLINE01
62
2
0
LINE
10
417881.894
20
6498140.255
30
0.000
11
417827.301
21
6498184.090
31
0.000
8
0
6
XKITLINE01
62
2
0
LINE
10
417827.301
20
6498184.090
30
0.000
11
417804.141
21
6498440.281
31
0.000
8
0
6
XKITLINE01
62
2
0
LINE
10
417732.880
20
6498445.297
30
0.000
11
417804.141
21
6498440.281
31
0.000
8
0
6
XKITLINE01
62
2
0
LINE
10
417804.141
20
6498440.281
30
0.000
11
417732.880
21
6498370.809
31
0.000
8
0
6
XKITLINE01
62
2
0
LINE
10
417752.941
20
6498494.750
30
0.000
11
417771.230
21
6498511.480
31
0.000
8
0
6
XKITLINE01
62
2
0
LINE
10
417811.379
20
6498510.270
30
0.000
11
417785.750
21
6498455.871
31
0.000
8
0
6
XKITLINE01
62
2
0
LINE
10
417785.750
20
6498455.871
30
0.000
11
417732.880
21
6498459.369
31
0.000
8
0
6
XKITLINE01
62
2
0
LINE
10
417732.880
20
6498500.818
30
0.000
11
417752.941
21
6498494.750
31
0.000
8
0
6
XKITLINE01
62
2
0
LINE
10
417771.230
20
6498511.480
30
0.000
11
417741.289
21
6498535.719
31
0.000
8
0
6
XKITLINE01
62
2
0
LINE
10
417858.891
20
6498485.031
30
0.000
11
417811.379
21
6498510.270
31
0.000
8
0
6
XKITLINE01
62
2
0
LINE
10
417741.289
20
6498535.719
30
0.000
11
417795.148
21
6498577.262
31
0.000
8
0
6
XKITLINE01
62
2
0
LINE
10
417795.148
20
6498577.262
30
0.000
11
417835.020
21
6498519.441
31
0.000
8
0
6
XKITLINE01
62
2
0
LINE
10
417835.020
20
6498519.441
30
0.000
11
417858.891
21
6498485.031
31
0.000
8
0
6
XKITLINE01
62
2
0
LINE
10
417843.148
20
6498434.250
30
0.000
11
417804.141
21
6498440.281
31
0.000
8
0
6
XKITLINE01
62
2
0
LINE
10
417926.262
20
6498425.211
30
0.000
11
417884.820
21
6498428.988
31
0.000
8
0
6
XKITLINE01
62
2
0
LINE
10
417884.820
20
6498428.988
30
0.000
11
417874.352
21
6498430.301
31
0.000
8
0
6
XKITLINE01
62
2
0
LINE
10
417874.352
20
6498430.301
30
0.000
11
417843.148
21
6498434.250
31
0.000
8
0
6
XKITLINE01
62
2
0
LINE
10
417884.820
20
6498428.988
30
0.000
11
417926.262
21
6498425.211
31
0.000
8
0
6
XKITLINE01
62
2
0
LINE
10
417732.880
20
6498459.369
30
0.000
11
417785.750
21
6498455.871
31
0.000
8
0
6
XKITLINE01
62
2
0
LINE
10
417785.750
20
6498455.871
30
0.000
11
417850.410
21
6498447.852
31
0.000
8
0
6
XKITLINE01
62
2
0
LINE
10
417850.410
20
6498447.852
30
0.000
11
417862.109
21
6498446.012
31
0.000
8
0
6
XKITLINE01
62
2
0
LINE
10
417862.109
20
6498446.012
30
0.000
11
417886.340
21
6498442.910
31
0.000
8
0
6
XKITLINE01
62
2
0
LINE
10
417886.340
20
6498442.910
30
0.000
11
417892.219
21
6498441.871
31
0.000
8
0
6
XKITLINE01
62
2
0
LINE
10
417892.219
20
6498441.871
30
0.000
11
417937.238
21
6498437.871
31
0.000
8
0
6
XKITLINE01
62
2
0
LINE
10
417937.238
20
6498437.871
30
0.000
11
417938.840
21
6498437.691
31
0.000
8
0
6
XKITLINE01
62
2
0
LINE
10
417938.840
20
6498437.691
30
0.000
11
417954.891
21
6498433.949
31
0.000
8
0
6
XKITLINE01
62
2
0
LINE
10
417954.891
20
6498433.949
30
0.000
11
417970.461
21
6498428.770
31
0.000
8
0
6
XKITLINE01
62
2
0
LINE
10
417970.461
20
6498428.770
30
0.000
11
417984.238
21
6498422.680
31
0.000
8
0
6
XKITLINE01
62
2
0
LINE
10
417984.238
20
6498422.680
30
0.000
11
418000.230
21
6498413.910
31
0.000
8
0
6
XKITLINE01
62
2
0
LINE
10
417999.512
20
6498397.781
30
0.000
11
417986.719
21
6498405.551
31
0.000
8
0
6
XKITLINE01
62
2
0
LINE
10
417986.719
20
6498405.551
30
0.000
11
417973.602
21
6498412.340
31
0.000
8
0
6
XKITLINE01
62
2
0
LINE
10
417973.602
20
6498412.340
30
0.000
11
417963.930
21
6498416.230
31
0.000
8
0
6
XKITLINE01
62
2
0
LINE
10
417963.930
20
6498416.230
30
0.000
11
417950.148
21
6498420.828
31
0.000
8
0
6
XKITLINE01
62
2
0
LINE
10
417950.148
20
6498420.828
30
0.000
11
417937.891
21
6498423.469
31
0.000
8
0
6
XKITLINE01
62
2
0
LINE
10
418070.828
20
6498206.609
30
0.000
11
418070.828
21
6498206.531
31
0.000
8
0
6
XKITLINE01
62
200
0
LINE
10
418070.828
20
6498206.656
30
0.000
11
418070.828
21
6498206.699
31
0.000
8
0
6
XKITLINE00
62
5
0
LINE
10
418155.266
20
6498268.211
30
0.000
11
418155.266
21
6498268.172
31
0.000
8
0
6
XKITLINE01
62
7
0
LINE
10
418155.523
20
6498268.211
30
0.000
11
418155.523
21
6498268.172
31
0.000
8
0
6
XKITLINE01
62
7
0
LINE
10
418155.438
20
6498268.211
30
0.000
11
418155.438
21
6498268.168
31
0.000
8
0
6
XKITLINE01
62
7
0
LINE
10
418155.352
20
6498268.211
30
0.000
11
418155.352
21
6498268.168
31
0.000
8
0
6
XKITLINE01
62
7
0
LINE
10
418070.828
20
6498206.477
30
0.000
11
418070.828
21
6498206.434
31
0.000
8
0
6
XKITLINE01
62
7
0
LINE
10
418070.938
20
6498206.477
30
0.000
11
418070.938
21
6498206.434
31
0.000
8
0
6
XKITLINE01
62
7
0
LINE
10
418013.980
20
6498486.934
30
0.000
11
418013.488
21
6498487.789
31
0.000
8
0
6
XKITLINE00
62
5
0
LINE
10
417805.621
20
6498483.738
30
0.000
11
417803.621
21
6498483.738
31
0.000
8
0
6
XKITLINE00
62
7
0
LINE
10
417895.121
20
6498167.887
30
0.000
11
417893.121
21
6498167.887
31
0.000
8
0
6
XKITLINE00
62
7
0
LINE
10
418070.828
20
6498206.531
30
0.000
11
418070.828
21
6498206.477
31
0.000
8
0
6
XKITLINE00
62
7
0
LINE
10
418070.938
20
6498206.477
30
0.000
11
418070.828
21
6498206.477
31
0.000
8
0
6
XKITLINE00
62
7
0
LINE
10
418155.438
20
6498268.211
30
0.000
11
418155.352
21
6498268.211
31
0.000
8
0
6
XKITLINE00
62
7
0
LINE
10
418155.438
20
6498268.211
30
0.000
11
418155.523
21
6498268.211
31
0.000
8
0
6
XKITLINE00
62
7
0
LINE
10
418161.109
20
6498284.941
30
0.000
11
418161.191
21
6498285.340
31
0.000
8
0
6
XKITLINE00
62
7
0
LINE
10
418155.352
20
6498268.211
30
0.000
11
418155.266
21
6498268.211
31
0.000
8
0
6
XKITLINE00
62
7
0
LINE
10
418070.828
20
6498206.762
30
0.000
11
418070.828
21
6498206.727
31
0.000
8
0
6
XKITLINE00
62
5
0
LINE
10
418070.828
20
6498206.727
30
0.000
11
418070.828
21
6498206.699
31
0.000
8
0
6
XKITLINE00
62
5
0
LINE
10
418070.828
20
6498206.656
30
0.000
11
418070.828
21
6498206.609
31
0.000
8
0
6
XKITLINE00
62
5
0
LINE
10
418070.828
20
6498206.434
30
0.000
11
418070.828
21
6498206.320
31
0.000
8
0
6
XKITLINE00
62
7
0
LINE
10
418070.938
20
6498206.434
30
0.000
11
418070.938
21
6498206.320
31
0.000
8
0
6
XKITLINE00
62
7
0
LINE
10
418155.266
20
6498268.172
30
0.000
11
418155.266
21
6498268.148
31
0.000
8
0
6
XKITLINE00
62
7
0
LINE
10
418155.266
20
6498268.136
30
0.000
11
418155.266
21
6498268.111
31
0.000
8
0
6
XKITLINE00
62
7
0
LINE
10
418155.266
20
6498268.111
30
0.000
11
418155.266
21
6498268.087
31
0.000
8
0
6
XKITLINE00
62
7
0
LINE
10
418155.266
20
6498268.075
30
0.000
11
418155.266
21
6498268.051
31
0.000
8
0
6
XKITLINE00
62
7
0
LINE
10
418155.523
20
6498268.172
30
0.000
11
418155.523
21
6498268.148
31
0.000
8
0
6
XKITLINE00
62
7
0
LINE
10
418155.523
20
6498268.136
30
0.000
11
418155.523
21
6498268.111
31
0.000
8
0
6
XKITLINE00
62
7
0
LINE
10
418155.523
20
6498268.111
30
0.000
11
418155.523
21
6498268.087
31
0.000
8
0
6
XKITLINE00
62
7
0
LINE
10
418155.523
20
6498268.075
30
0.000
11
418155.523
21
6498268.051
31
0.000
8
0
6
XKITLINE00
62
7
0
LINE
10
418155.352
20
6498268.168
30
0.000
11
418155.352
21
6498268.144
31
0.000
8
0
6
XKITLINE00
62
7
0
LINE
10
418155.352
20
6498268.132
30
0.000
11
418155.352
21
6498268.107
31
0.000
8
0
6
XKITLINE00
62
7
0
LINE
10
418155.352
20
6498268.107
30
0.000
11
418155.352
21
6498268.083
31
0.000
8
0
6
XKITLINE00
62
7
0
LINE
10
418155.352
20
6498268.071
30
0.000
11
418155.352
21
6498268.047
31
0.000
8
0
6
XKITLINE00
62
7
0
LINE
10
418155.438
20
6498268.168
30
0.000
11
418155.438
21
6498268.144
31
0.000
8
0
6
XKITLINE00
62
7
0
LINE
10
418155.438
20
6498268.132
30
0.000
11
418155.438
21
6498268.107
31
0.000
8
0
6
XKITLINE00
62
7
0
LINE
10
418155.438
20
6498268.107
30
0.000
11
418155.438
21
6498268.083
31
0.000
8
0
6
XKITLINE00
62
7
0
LINE
10
418155.438
20
6498268.071
30
0.000
11
418155.438
21
6498268.047
31
0.000
8
0
6
XKITLINE00
62
7
0
LINE
10
417892.698
20
6498140.255
30
0.000
11
417891.902
21
6498142.641
31
0.000
8
0
6
XKITLINE01
62
3
0
LINE
10
417891.902
20
6498142.641
30
0.000
11
417895.023
21
6498151.141
31
0.000
8
0
6
XKITLINE01
62
3
0
LINE
10
417895.023
20
6498151.141
30
0.000
11
417895.828
21
6498158.785
31
0.000
8
0
6
XKITLINE01
62
3
0
LINE
10
417895.828
20
6498158.785
30
0.000
11
417895.676
21
6498167.383
31
0.000
8
0
6
XKITLINE01
62
3
0
LINE
10
417895.676
20
6498167.383
30
0.000
11
417895.121
21
6498167.887
31
0.000
8
0
6
XKITLINE01
62
3
0
LINE
10
417980.805
20
6498412.270
30
0.000
11
417990.762
21
6498406.625
31
0.000
8
0
6
XKITLINE01
62
5
0
LINE
10
418116.387
20
6498235.863
30
0.000
11
418116.629
21
6498234.531
31
0.000
8
0
6
XKITLINE01
62
5
0
LINE
10
418138.105
20
6498254.777
30
0.000
11
418116.387
21
6498235.863
31
0.000
8
0
6
XKITLINE01
62
5
0
LINE
10
418013.980
20
6498486.934
30
0.000
11
418014.949
21
6498483.477
31
0.000
8
0
6
XKITLINE01
62
5
0
LINE
10
418014.949
20
6498483.477
30
0.000
11
418005.840
21
6498476.348
31
0.000
8
0
6
XKITLINE01
62
5
0
LINE
10
418005.840
20
6498476.348
30
0.000
11
417984.734
21
6498463.152
31
0.000
8
0
6
XKITLINE01
62
5
0
LINE
10
417984.734
20
6498463.152
30
0.000
11
417956.766
21
6498444.977
31
0.000
8
0
6
XKITLINE01
62
5
0
LINE
10
417956.766
20
6498444.977
30
0.000
11
417946.637
21
6498436.766
31
0.000
8
0
6
XKITLINE01
62
5
0
LINE
10
417946.637
20
6498436.766
30
0.000
11
417944.781
21
6498434.348
31
0.000
8
0
6
XKITLINE01
62
5
0
LINE
10
417944.781
20
6498434.348
30
0.000
11
417942.879
21
6498425.594
31
0.000
8
0
6
XKITLINE01
62
5
0
LINE
10
417942.879
20
6498425.594
30
0.000
11
417960.637
21
6498420.816
31
0.000
8
0
6
XKITLINE01
62
5
0
LINE
10
417960.637
20
6498420.816
30
0.000
11
417980.805
21
6498412.270
31
0.000
8
0
6
XKITLINE01
62
5
0
LINE
10
418125.016
20
6498276.148
30
0.000
11
418138.105
21
6498254.777
31
0.000
8
0
6
XKITLINE01
62
5
0
LINE
10
417990.762
20
6498406.625
30
0.000
11
418022.953
21
6498384.719
31
0.000
8
0
6
XKITLINE01
62
5
0
LINE
10
418022.953
20
6498384.719
30
0.000
11
418031.371
21
6498377.906
31
0.000
8
0
6
XKITLINE01
62
5
0
LINE
10
418031.371
20
6498377.906
30
0.000
11
418042.855
21
6498368.285
31
0.000
8
0
6
XKITLINE01
62
5
0
LINE
10
418042.855
20
6498368.285
30
0.000
11
418064.832
21
6498347.883
31
0.000
8
0
6
XKITLINE01
62
5
0
LINE
10
418064.832
20
6498347.883
30
0.000
11
418084.945
21
6498327.078
31
0.000
8
0
6
XKITLINE01
62
5
0
LINE
10
418084.945
20
6498327.078
30
0.000
11
418092.758
21
6498318.395
31
0.000
8
0
6
XKITLINE01
62
5
0
LINE
10
418092.758
20
6498318.395
30
0.000
11
418115.398
21
6498289.375
31
0.000
8
0
6
XKITLINE01
62
5
0
LINE
10
418115.398
20
6498289.375
30
0.000
11
418125.016
21
6498276.148
31
0.000
8
0
6
XKITLINE01
62
5
0
LINE
10
418267.160
20
6498163.500
30
0.000
11
418268.371
21
6498157.328
31
0.000
8
0
6
XKITLINE01
62
3
0
LINE
10
418265.512
20
6498171.059
30
0.000
11
418267.160
21
6498163.500
31
0.000
8
0
6
XKITLINE01
62
3
0
LINE
10
418263.699
20
6498179.770
30
0.000
11
418265.512
21
6498171.059
31
0.000
8
0
6
XKITLINE01
62
3
0
LINE
10
418261.391
20
6498189.648
30
0.000
11
418263.699
21
6498179.770
31
0.000
8
0
6
XKITLINE01
62
3
0
LINE
10
418258.391
20
6498199.551
30
0.000
11
418261.391
21
6498189.648
31
0.000
8
0
6
XKITLINE01
62
3
0
LINE
10
418254.711
20
6498208.488
30
0.000
11
418258.391
21
6498199.551
31
0.000
8
0
6
XKITLINE01
62
3
0
LINE
10
418247.930
20
6498221.988
30
0.000
11
418254.711
21
6498208.488
31
0.000
8
0
6
XKITLINE01
62
3
0
LINE
10
418241.691
20
6498233.699
30
0.000
11
418247.930
21
6498221.988
31
0.000
8
0
6
XKITLINE01
62
3
0
LINE
10
418237.121
20
6498243.051
30
0.000
11
418241.691
21
6498233.699
31
0.000
8
0
6
XKITLINE01
62
3
0
LINE
10
418230.672
20
6498256.121
30
0.000
11
418237.121
21
6498243.051
31
0.000
8
0
6
XKITLINE01
62
3
0
LINE
10
418227.160
20
6498259.121
30
0.000
11
418230.672
21
6498256.121
31
0.000
8
0
6
XKITLINE01
62
3
0
LINE
10
418223.398
20
6498260.980
30
0.000
11
418227.160
21
6498259.121
31
0.000
8
0
6
XKITLINE01
62
3
0
LINE
10
418217.102
20
6498261.121
30
0.000
11
418223.398
21
6498260.980
31
0.000
8
0
6
XKITLINE01
62
3
0
LINE
10
418204.309
20
6498257.012
30
0.000
11
418217.102
21
6498261.121
31
0.000
8
0
6
XKITLINE01
62
3
0
LINE
10
418196.559
20
6498254.809
30
0.000
11
418204.309
21
6498257.012
31
0.000
8
0
6
XKITLINE01
62
3
0
LINE
10
418190.949
20
6498254.590
30
0.000
11
418196.559
21
6498254.809
31
0.000
8
0
6
XKITLINE01
62
3
0
LINE
10
418180.711
20
6498259.379
30
0.000
11
418185.691
21
6498256.621
31
0.000
8
0
6
XKITLINE01
62
3
0
LINE
10
418169.309
20
6498262.250
30
0.000
11
418180.711
21
6498259.379
31
0.000
8
0
6
XKITLINE01
62
3
0
LINE
10
418159.730
20
6498263.570
30
0.000
11
418169.309
21
6498262.250
31
0.000
8
0
6
XKITLINE01
62
3
0
LINE
10
418185.691
20
6498256.621
30
0.000
11
418190.949
21
6498254.590
31
0.000
8
0
6
XKITLINE01
62
3
0
LINE
10
418269.520
20
6498147.352
30
0.000
11
418270.204
21
6498140.255
31
0.000
8
0
6
XKITLINE01
62
3
0
LINE
10
418155.621
20
6498264.871
30
0.000
11
418155.352
21
6498268.047
31
0.000
8
0
6
XKITLINE01
62
3
0
LINE
10
418070.938
20
6498206.320
30
0.000
11
418073.742
21
6498208.121
31
0.000
8
0
6
XKITLINE01
62
3
0
LINE
10
418070.828
20
6498206.320
30
0.000
11
418062.117
21
6498198.188
31
0.000
8
0
6
XKITLINE01
62
3
0
LINE
10
418159.730
20
6498263.570
30
0.000
11
418155.621
21
6498264.871
31
0.000
8
0
6
XKITLINE01
62
3
0
LINE
10
418268.371
20
6498157.328
30
0.000
11
418269.520
21
6498147.352
31
0.000
8
0
6
XKITLINE01
62
3
0
LINE
10
417805.621
20
6498483.738
30
0.000
11
417804.301
21
6498483.109
31
0.000
8
0
6
XKITLINE01
62
3
0
LINE
10
417793.902
20
6498487.359
30
0.000
11
417789.770
21
6498489.367
31
0.000
8
0
6
XKITLINE01
62
3
0
LINE
10
417804.301
20
6498483.109
30
0.000
11
417799.188
21
6498484.141
31
0.000
8
0
6
XKITLINE01
62
3
0
LINE
10
417763.398
20
6498492.449
30
0.000
11
417754.328
21
6498492.066
31
0.000
8
0
6
XKITLINE01
62
3
0
LINE
10
417754.328
20
6498492.066
30
0.000
11
417744.965
21
6498495.113
31
0.000
8
0
6
XKITLINE01
62
3
0
LINE
10
417744.965
20
6498495.113
30
0.000
11
417737.098
21
6498496.777
31
0.000
8
0
6
XKITLINE01
62
3
0
LINE
10
417737.098
20
6498496.777
30
0.000
11
417732.880
21
6498496.324
31
0.000
8
0
6
XKITLINE01
62
3
0
LINE
10
417789.770
20
6498489.367
30
0.000
11
417780.637
21
6498490.863
31
0.000
8
0
6
XKITLINE01
62
3
0
LINE
10
417780.637
20
6498490.863
30
0.000
11
417769.953
21
6498492.469
31
0.000
8
0
6
XKITLINE01
62
3
0
LINE
10
417769.953
20
6498492.469
30
0.000
11
417763.398
21
6498492.449
31
0.000
8
0
6
XKITLINE01
62
3
0
LINE
10
417799.188
20
6498484.141
30
0.000
11
417793.902
21
6498487.359
31
0.000
8
0
6
XKITLINE01
62
3
0
LINE
10
418074.207
20
6498206.746
30
0.000
11
418070.828
21
6498206.512
31
0.000
8
0
6
XKITLINE01
62
5
0
LINE
10
418157.449
20
6498266.105
30
0.000
11
418157.793
21
6498266.012
31
0.000
8
0
6
XKITLINE01
62
3
0
LINE
10
418155.523
20
6498268.051
30
0.000
11
418157.449
21
6498266.105
31
0.000
8
0
6
XKITLINE01
62
3
0
LINE
10
418155.016
20
6498267.328
30
0.000
11
418155.266
21
6498268.051
31
0.000
8
0
6
XKITLINE01
62
3
0
LINE
10
418157.449
20
6498266.105
30
0.000
11
418157.816
21
6498266.277
31
0.000
8
0
6
XKITLINE01
62
3
0
LINE
10
418154.672
20
6498268.430
30
0.000
11
418154.109
21
6498268.070
31
0.000
8
0
6
XKITLINE01
62
3
0
LINE
10
418155.332
20
6498267.941
30
0.000
11
418154.672
21
6498268.430
31
0.000
8
0
6
XKITLINE01
62
3
0
LINE
10
418160.500
20
6498285.449
30
0.000
11
418161.109
21
6498284.941
31
0.000
8
0
6
XKITLINE01
62
3
0
LINE
10
418158.949
20
6498284.719
30
0.000
11
418160.090
21
6498285.430
31
0.000
8
0
6
XKITLINE01
62
3
0
LINE
10
418155.520
20
6498282.641
30
0.000
11
418158.949
21
6498284.719
31
0.000
8
0
6
XKITLINE01
62
3
0
LINE
10
418152.809
20
6498269.359
30
0.000
11
418150.430
21
6498273.898
31
0.000
8
0
6
XKITLINE01
62
3
0
LINE
10
418153.691
20
6498268.078
30
0.000
11
418152.809
21
6498269.359
31
0.000
8
0
6
XKITLINE01
62
3
0
LINE
10
418154.109
20
6498268.070
30
0.000
11
418153.691
21
6498268.078
31
0.000
8
0
6
XKITLINE01
62
3
0
LINE
10
418155.438
20
6498268.047
30
0.000
11
418155.332
21
6498267.941
31
0.000
8
0
6
XKITLINE01
62
3
0
LINE
10
418149.250
20
6498276.012
30
0.000
11
418148.570
21
6498277.211
31
0.000
8
0
6
XKITLINE01
62
3
0
LINE
10
418150.430
20
6498273.898
30
0.000
11
418149.250
21
6498276.012
31
0.000
8
0
6
XKITLINE01
62
3
0
LINE
10
418152.520
20
6498280.570
30
0.000
11
418155.520
21
6498282.641
31
0.000
8
0
6
XKITLINE01
62
3
0
LINE
10
418148.781
20
6498278.000
30
0.000
11
418152.520
21
6498280.570
31
0.000
8
0
6
XKITLINE01
62
3
0
LINE
10
418148.570
20
6498277.211
30
0.000
11
418148.781
21
6498278.000
31
0.000
8
0
6
XKITLINE01
62
3
0
LINE
10
418160.090
20
6498285.430
30
0.000
11
418160.500
21
6498285.449
31
0.000
8
0
6
XKITLINE01
62
3
0
LINE
10
418157.816
20
6498266.277
30
0.000
11
418164.961
21
6498301.805
31
0.000
8
0
6
XKITLINE01
62
7
0
LINE
10
418024.688
20
6498163.277
30
0.000
11
418062.117
21
6498198.188
31
0.000
8
0
6
XKITLINE00
62
3
0
LINE
10
417999.432
20
6498140.255
30
0.000
11
418024.688
21
6498163.277
31
0.000
8
0
6
XKITLINE00
62
3
0
LINE
10
418116.629
20
6498234.531
30
0.000
11
418155.016
21
6498267.328
31
0.000
8
0
6
XKITLINE00
62
3
0
LINE
10
418073.742
20
6498208.121
30
0.000
11
418116.629
21
6498234.531
31
0.000
8
0
6
XKITLINE00
62
3
0
LINE
10
417793.754
20
6498573.703
30
0.000
11
417840.385
21
6498610.655
31
0.000
8
0
6
XKITLINE00
62
3
0
LINE
10
417746.688
20
6498536.957
30
0.000
11
417793.754
21
6498573.703
31
0.000
8
0
6
XKITLINE00
62
3
0
LINE
10
417732.880
20
6498527.409
30
0.000
11
417746.688
21
6498536.957
31
0.000
8
0
6
XKITLINE00
62
3
0
LINE
10
418093.102
20
6498311.648
30
0.000
11
418087.988
21
6498317.770
31
0.000
8
0
6
XKITLINE02
62
1
0
LINE
10
418099.051
20
6498304.191
30
0.000
11
418093.102
21
6498311.648
31
0.000
8
0
6
XKITLINE02
62
1
0
LINE
10
418105.379
20
6498295.980
30
0.000
11
418099.051
21
6498304.191
31
0.000
8
0
6
XKITLINE02
62
1
0
LINE
10
418087.988
20
6498317.770
30
0.000
11
418086.449
21
6498319.590
31
0.000
8
0
6
XKITLINE02
62
1
0
LINE
10
418111.320
20
6498287.398
30
0.000
11
418105.379
21
6498295.980
31
0.000
8
0
6
XKITLINE02
62
1
0
LINE
10
418117.578
20
6498279.102
30
0.000
11
418111.320
21
6498287.398
31
0.000
8
0
6
XKITLINE02
62
1
0
LINE
10
418123.641
20
6498270.609
30
0.000
11
418117.578
21
6498279.102
31
0.000
8
0
6
XKITLINE02
62
1
0
LINE
10
418129.500
20
6498261.840
30
0.000
11
418123.641
21
6498270.609
31
0.000
8
0
6
XKITLINE02
62
1
0
LINE
10
418135.031
20
6498253.340
30
0.000
11
418129.500
21
6498261.840
31
0.000
8
0
6
XKITLINE02
62
1
0
LINE
10
418135.039
20
6498252.641
30
0.000
11
418135.031
21
6498253.340
31
0.000
8
0
6
XKITLINE02
62
1
0
LINE
10
418134.512
20
6498251.852
30
0.000
11
418135.039
21
6498252.641
31
0.000
8
0
6
XKITLINE02
62
1
0
LINE
10
418129.238
20
6498248.090
30
0.000
11
418134.512
21
6498251.852
31
0.000
8
0
6
XKITLINE02
62
1
0
LINE
10
418122.379
20
6498243.289
30
0.000
11
418129.238
21
6498248.090
31
0.000
8
0
6
XKITLINE02
62
1
0
LINE
10
418113.922
20
6498237.211
30
0.000
11
418122.379
21
6498243.289
31
0.000
8
0
6
XKITLINE02
62
1
0
LINE
10
418105.781
20
6498231.039
30
0.000
11
418113.922
21
6498237.211
31
0.000
8
0
6
XKITLINE02
62
1
0
LINE
10
418097.641
20
6498224.699
30
0.000
11
418105.781
21
6498231.039
31
0.000
8
0
6
XKITLINE02
62
1
0
LINE
10
418081.410
20
6498212.480
30
0.000
11
418089.398
21
6498218.570
31
0.000
8
0
6
XKITLINE02
62
1
0
LINE
10
418073.102
20
6498206.801
30
0.000
11
418081.410
21
6498212.480
31
0.000
8
0
6
XKITLINE02
62
1
0
LINE
10
418070.172
20
6498336.531
30
0.000
11
418062.859
21
6498344.000
31
0.000
8
0
6
XKITLINE02
62
1
0
LINE
10
418067.531
20
6498204.309
30
0.000
11
418073.102
21
6498206.801
31
0.000
8
0
6
XKITLINE02
62
1
0
LINE
10
418089.398
20
6498218.570
30
0.000
11
418097.641
21
6498224.699
31
0.000
8
0
6
XKITLINE02
62
1
0
LINE
10
417952.250
20
6498419.629
30
0.000
11
417942.879
21
6498422.090
31
0.000
8
0
6
XKITLINE02
62
1
0
LINE
10
417961.488
20
6498416.160
30
0.000
11
417952.250
21
6498419.629
31
0.000
8
0
6
XKITLINE02
62
1
0
LINE
10
417980.590
20
6498407.371
30
0.000
11
417971.141
21
6498411.961
31
0.000
8
0
6
XKITLINE02
62
1
0
LINE
10
417989.781
20
6498402.469
30
0.000
11
417980.590
21
6498407.371
31
0.000
8
0
6
XKITLINE02
62
1
0
LINE
10
417998.410
20
6498397.141
30
0.000
11
417989.781
21
6498402.469
31
0.000
8
0
6
XKITLINE02
62
1
0
LINE
10
417971.141
20
6498411.961
30
0.000
11
417961.488
21
6498416.160
31
0.000
8
0
6
XKITLINE02
62
1
0
LINE
10
418015.031
20
6498385.199
30
0.000
11
418006.969
21
6498391.359
31
0.000
8
0
6
XKITLINE02
62
1
0
LINE
10
418023.629
20
6498377.969
30
0.000
11
418015.031
21
6498385.199
31
0.000
8
0
6
XKITLINE02
62
1
0
LINE
10
418025.270
20
6498376.500
30
0.000
11
418023.629
21
6498377.969
31
0.000
8
0
6
XKITLINE02
62
1
0
LINE
10
418026.891
20
6498375.191
30
0.000
11
418025.270
21
6498376.500
31
0.000
8
0
6
XKITLINE02
62
1
0
LINE
10
418006.969
20
6498391.359
30
0.000
11
417998.410
21
6498397.141
31
0.000
8
0
6
XKITLINE02
62
1
0
LINE
10
418062.859
20
6498344.000
30
0.000
11
418055.410
21
6498351.371
31
0.000
8
0
6
XKITLINE02
62
1
0
LINE
10
418055.410
20
6498351.371
30
0.000
11
418047.930
21
6498358.191
31
0.000
8
0
6
XKITLINE02
62
1
0
LINE
10
418047.930
20
6498358.191
30
0.000
11
418040.328
21
6498365.000
31
0.000
8
0
6
XKITLINE02
62
1
0
LINE
10
418040.328
20
6498365.000
30
0.000
11
418033.281
21
6498370.590
31
0.000
8
0
6
XKITLINE02
62
1
0
LINE
10
418033.281
20
6498370.590
30
0.000
11
418026.891
21
6498375.191
31
0.000
8
0
6
XKITLINE02
62
1
0
LINE
10
417771.539
20
6498441.379
30
0.000
11
417768.441
21
6498441.559
31
0.000
8
0
6
XKITLINE02
62
1
0
LINE
10
417768.441
20
6498441.559
30
0.000
11
417758.191
21
6498441.480
31
0.000
8
0
6
XKITLINE02
62
1
0
LINE
10
417758.191
20
6498441.480
30
0.000
11
417747.898
21
6498441.801
31
0.000
8
0
6
XKITLINE02
62
1
0
LINE
10
417920.172
20
6498425.328
30
0.000
11
417915.352
21
6498425.410
31
0.000
8
0
6
XKITLINE02
62
1
0
LINE
10
417942.879
20
6498422.090
30
0.000
11
417932.629
21
6498423.648
31
0.000
8
0
6
XKITLINE02
62
1
0
LINE
10
417932.629
20
6498423.648
30
0.000
11
417923.070
21
6498425.180
31
0.000
8
0
6
XKITLINE02
62
1
0
LINE
10
417923.070
20
6498425.180
30
0.000
11
417920.172
21
6498425.328
31
0.000
8
0
6
XKITLINE02
62
1
0
LINE
10
417915.352
20
6498425.410
30
0.000
11
417909.289
21
6498425.840
31
0.000
8
0
6
XKITLINE02
62
1
0
LINE
10
417909.289
20
6498425.840
30
0.000
11
417904.281
21
6498426.230
31
0.000
8
0
6
XKITLINE02
62
1
0
LINE
10
417904.281
20
6498426.230
30
0.000
11
417893.988
21
6498426.801
31
0.000
8
0
6
XKITLINE02
62
1
0
LINE
10
417893.988
20
6498426.801
30
0.000
11
417887.129
21
6498426.621
31
0.000
8
0
6
XKITLINE02
62
1
0
LINE
10
417887.129
20
6498426.621
30
0.000
11
417878.961
21
6498426.781
31
0.000
8
0
6
XKITLINE02
62
1
0
LINE
10
417878.961
20
6498426.781
30
0.000
11
417868.969
21
6498428.410
31
0.000
8
0
6
XKITLINE02
62
1
0
LINE
10
417868.969
20
6498428.410
30
0.000
11
417859.031
21
6498430.422
31
0.000
8
0
6
XKITLINE02
62
1
0
LINE
10
417859.031
20
6498430.422
30
0.000
11
417850.441
21
6498432.039
31
0.000
8
0
6
XKITLINE02
62
1
0
LINE
10
417850.441
20
6498432.039
30
0.000
11
417847.730
21
6498432.000
31
0.000
8
0
6
XKITLINE02
62
1
0
LINE
10
417847.730
20
6498432.000
30
0.000
11
417840.352
21
6498431.379
31
0.000
8
0
6
XKITLINE02
62
1
0
LINE
10
417840.352
20
6498431.379
30
0.000
11
417830.328
21
6498431.590
31
0.000
8
0
6
XKITLINE02
62
1
0
LINE
10
417737.371
20
6498442.840
30
0.000
11
417732.880
21
6498443.507
31
0.000
8
0
6
XKITLINE02
62
1
0
LINE
10
417747.898
20
6498441.801
30
0.000
11
417737.371
21
6498442.840
31
0.000
8
0
6
XKITLINE02
62
1
0
LINE
10
417802.809
20
6498437.879
30
0.000
11
417800.270
21
6498438.941
31
0.000
8
0
6
XKITLINE02
62
1
0
LINE
10
418086.449
20
6498319.590
30
0.000
11
418084.641
21
6498321.520
31
0.000
8
0
6
XKITLINE02
62
1
0
LINE
10
418084.641
20
6498321.520
30
0.000
11
418077.391
21
6498329.172
31
0.000
8
0
6
XKITLINE02
62
1
0
LINE
10
417830.328
20
6498431.590
30
0.000
11
417825.719
21
6498431.859
31
0.000
8
0
6
XKITLINE02
62
1
0
LINE
10
417825.719
20
6498431.859
30
0.000
11
417823.281
21
6498432.031
31
0.000
8
0
6
XKITLINE02
62
1
0
LINE
10
417813.180
20
6498435.238
30
0.000
11
417808.770
21
6498436.371
31
0.000
8
0
6
XKITLINE02
62
1
0
LINE
10
417823.281
20
6498432.031
30
0.000
11
417820.781
21
6498432.762
31
0.000
8
0
6
XKITLINE02
62
1
0
LINE
10
417820.781
20
6498432.762
30
0.000
11
417818.551
21
6498433.781
31
0.000
8
0
6
XKITLINE02
62
1
0
LINE
10
417818.551
20
6498433.781
30
0.000
11
417813.180
21
6498435.238
31
0.000
8
0
6
XKITLINE02
62
1
0
LINE
10
417808.770
20
6498436.371
30
0.000
11
417802.809
21
6498437.879
31
0.000
8
0
6
XKITLINE02
62
1
0
LINE
10
418077.391
20
6498329.172
30
0.000
11
418070.172
21
6498336.531
31
0.000
8
0
6
XKITLINE02
62
1
0
LINE
10
417800.270
20
6498438.941
30
0.000
11
417798.531
21
6498439.359
31
0.000
8
0
6
XKITLINE02
62
1
0
LINE
10
417798.531
20
6498439.359
30
0.000
11
417795.859
21
6498440.250
31
0.000
8
0
6
XKITLINE02
62
1
0
LINE
10
417795.859
20
6498440.250
30
0.000
11
417785.852
21
6498440.941
31
0.000
8
0
6
XKITLINE02
62
1
0
LINE
10
417785.852
20
6498440.941
30
0.000
11
417779.820
21
6498441.180
31
0.000
8
0
6
XKITLINE02
62
1
0
LINE
10
417779.820
20
6498441.180
30
0.000
11
417773.352
21
6498441.398
31
0.000
8
0
6
XKITLINE02
62
1
0
LINE
10
417773.352
20
6498441.398
30
0.000
11
417771.539
21
6498441.379
31
0.000
8
0
6
XKITLINE02
62
1
0
LINE
10
418024.020
20
6498164.020
30
0.000
11
418067.531
21
6498204.309
31
0.000
8
0
6
XKITLINE00
62
1
0
LINE
10
417998.009
20
6498140.255
30
0.000
11
418024.020
21
6498164.020
31
0.000
8
0
6
XKITLINE00
62
1
0
LINE
10
417804.141
20
6498440.281
30
0.000
11
417732.880
21
6498445.297
31
0.000
8
0
6
XKITLINE01
62
2
0
LINE
10
417874.352
20
6498430.301
30
0.000
11
417884.820
21
6498428.988
31
0.000
8
0
6
XKITLINE01
62
2
0
LINE
10
417937.891
20
6498423.469
30
0.000
11
417950.148
21
6498420.828
31
0.000
8
0
6
XKITLINE01
62
2
0
LINE
10
417874.621
20
6498428.820
30
0.000
11
417874.352
21
6498430.301
31
0.000
8
0
6
XKITLINE01
62
2
0
LINE
10
417888.551
20
6498352.340
30
0.000
11
417874.621
21
6498428.820
31
0.000
8
0
6
XKITLINE01
62
2
0
LINE
10
417986.512
20
6498326.961
30
0.000
11
417984.719
21
6498327.449
31
0.000
8
0
6
XKITLINE01
62
2
0
LINE
10
417990.801
20
6498333.621
30
0.000
11
417986.512
21
6498326.961
31
0.000
8
0
6
XKITLINE01
62
2
0
LINE
10
417999.320
20
6498346.012
30
0.000
11
417990.801
21
6498333.621
31
0.000
8
0
6
XKITLINE01
62
2
0
LINE
10
417984.719
20
6498327.449
30
0.000
11
417888.551
21
6498352.340
31
0.000
8
0
6
XKITLINE01
62
2
0
LINE
10
417937.238
20
6498437.871
30
0.000
11
417892.219
21
6498441.871
31
0.000
8
0
6
XKITLINE01
62
2
0
LINE
10
418012.629
20
6498484.910
30
0.000
11
417938.422
21
6498438.602
31
0.000
8
0
6
XKITLINE01
62
2
0
LINE
10
417985.172
20
6498530.852
30
0.000
11
418012.629
21
6498484.910
31
0.000
8
0
6
XKITLINE01
62
2
0
LINE
10
417892.219
20
6498441.871
30
0.000
11
417985.172
21
6498530.852
31
0.000
8
0
6
XKITLINE01
62
2
0
LINE
10
417938.422
20
6498438.602
30
0.000
11
417937.238
21
6498437.871
31
0.000
8
0
6
XKITLINE01
62
2
0
LINE
10
417741.289
20
6498535.719
30
0.000
11
417732.880
21
6498528.379
31
0.000
8
0
6
XKITLINE01
62
2
0
LINE
10
417795.148
20
6498577.262
30
0.000
11
417741.289
21
6498535.719
31
0.000
8
0
6
XKITLINE01
62
2
0
LINE
10
417830.969
20
6498605.309
30
0.000
11
417795.148
21
6498577.262
31
0.000
8
0
6
XKITLINE01
62
2
0
LINE
10
417828.522
20
6498610.655
30
0.000
11
417830.969
21
6498605.309
31
0.000
8
0
6
XKITLINE01
62
2
0
LINE
10
418067.059
20
6498512.891
30
0.000
11
418012.629
21
6498484.910
31
0.000
8
0
6
XKITLINE01
62
2
0
LINE
10
418091.730
20
6498525.578
30
0.000
11
418067.059
21
6498512.891
31
0.000
8
0
6
XKITLINE01
62
2
0
LINE
10
418091.391
20
6498526.320
30
0.000
11
418091.730
21
6498525.578
31
0.000
8
0
6
XKITLINE01
62
2
0
LINE
10
418089.641
20
6498531.531
30
0.000
11
418091.391
21
6498526.320
31
0.000
8
0
6
XKITLINE01
62
2
0
LINE
10
418089.379
20
6498535.262
30
0.000
11
418089.641
21
6498531.531
31
0.000
8
0
6
XKITLINE01
62
2
0
LINE
10
418089.660
20
6498536.680
30
0.000
11
418089.379
21
6498535.262
31
0.000
8
0
6
XKITLINE01
62
2
0
LINE
10
418091.051
20
6498539.410
30
0.000
11
418089.660
21
6498536.680
31
0.000
8
0
6
XKITLINE01
62
2
0
LINE
10
418091.078
20
6498541.090
30
0.000
11
418091.051
21
6498539.410
31
0.000
8
0
6
XKITLINE01
62
2
0
LINE
10
418090.379
20
6498542.301
30
0.000
11
418091.078
21
6498541.090
31
0.000
8
0
6
XKITLINE01
62
2
0
LINE
10
418088.738
20
6498542.930
30
0.000
11
418090.379
21
6498542.301
31
0.000
8
0
6
XKITLINE01
62
2
0
LINE
10
418086.180
20
6498542.020
30
0.000
11
418088.738
21
6498542.930
31
0.000
8
0
6
XKITLINE01
62
2
0
LINE
10
418081.809
20
6498543.090
30
0.000
11
418086.180
21
6498542.020
31
0.000
8
0
6
XKITLINE01
62
2
0
LINE
10
418078.371
20
6498545.160
30
0.000
11
418081.809
21
6498543.090
31
0.000
8
0
6
XKITLINE01
62
2
0
LINE
10
418072.422
20
6498551.270
30
0.000
11
418078.371
21
6498545.160
31
0.000
8
0
6
XKITLINE01
62
2
0
LINE
10
418062.711
20
6498560.070
30
0.000
11
418072.422
21
6498551.270
31
0.000
8
0
6
XKITLINE01
62
2
0
LINE
10
418055.160
20
6498569.480
30
0.000
11
418062.711
21
6498560.070
31
0.000
8
0
6
XKITLINE01
62
2
0
LINE
10
418050.301
20
6498578.379
30
0.000
11
418055.160
21
6498569.480
31
0.000
8
0
6
XKITLINE01
62
2
0
LINE
10
418046.961
20
6498584.090
30
0.000
11
418050.301
21
6498578.379
31
0.000
8
0
6
XKITLINE01
62
2
0
LINE
10
418032.500
20
6498574.711
30
0.000
11
418046.961
21
6498584.090
31
0.000
8
0
6
XKITLINE01
62
2
0
LINE
10
417977.520
20
6498539.000
30
0.000
11
418032.500
21
6498574.711
31
0.000
8
0
6
XKITLINE01
62
2
0
LINE
10
418032.500
20
6498574.711
30
0.000
11
417977.520
21
6498539.000
31
0.000
8
0
6
XKITLINE01
62
2
0
LINE
10
418046.961
20
6498584.090
30
0.000
11
418032.500
21
6498574.711
31
0.000
8
0
6
XKITLINE01
62
2
0
LINE
10
418031.393
20
6498610.655
30
0.000
11
418046.961
21
6498584.090
31
0.000
8
0
6
XKITLINE01
62
2
0
LINE
10
418011.621
20
6498389.410
30
0.000
11
418024.738
21
6498379.590
31
0.000
8
0
6
XKITLINE01
62
2
0
LINE
10
417999.512
20
6498397.781
30
0.000
11
418011.621
21
6498389.410
31
0.000
8
0
6
XKITLINE01
62
2
0
LINE
10
418014.020
20
6498367.000
30
0.000
11
417999.320
21
6498346.012
31
0.000
8
0
6
XKITLINE01
62
2
0
LINE
10
418018.059
20
6498370.871
30
0.000
11
418014.020
21
6498367.000
31
0.000
8
0
6
XKITLINE01
62
2
0
LINE
10
418023.949
20
6498374.551
30
0.000
11
418018.059
21
6498370.871
31
0.000
8
0
6
XKITLINE01
62
2
0
LINE
10
418025.430
20
6498375.949
30
0.000
11
418023.949
21
6498374.551
31
0.000
8
0
6
XKITLINE01
62
2
0
LINE
10
418026.371
20
6498378.230
30
0.000
11
418025.430
21
6498375.949
31
0.000
8
0
6
XKITLINE01
62
2
0
LINE
10
418024.738
20
6498379.590
30
0.000
11
418026.371
21
6498378.230
31
0.000
8
0
6
XKITLINE01
62
2
0
LINE
10
418011.621
20
6498389.410
30
0.000
11
417999.512
21
6498397.781
31
0.000
8
0
6
XKITLINE01
62
2
0
LINE
10
418024.738
20
6498379.590
30
0.000
11
418011.621
21
6498389.410
31
0.000
8
0
6
XKITLINE01
62
2
0
LINE
10
418026.371
20
6498378.230
30
0.000
11
418024.738
21
6498379.590
31
0.000
8
0
6
XKITLINE01
62
2
0
LINE
10
418045.078
20
6498362.551
30
0.000
11
418026.371
21
6498378.230
31
0.000
8
0
6
XKITLINE01
62
2
0
LINE
10
418061.930
20
6498347.102
30
0.000
11
418045.078
21
6498362.551
31
0.000
8
0
6
XKITLINE01
62
2
0
LINE
10
418076.609
20
6498332.102
30
0.000
11
418061.930
21
6498347.102
31
0.000
8
0
6
XKITLINE01
62
2
0
LINE
10
418086.391
20
6498321.500
30
0.000
11
418076.609
21
6498332.102
31
0.000
8
0
6
XKITLINE01
62
2
0
LINE
10
418100.172
20
6498305.230
30
0.000
11
418086.391
21
6498321.500
31
0.000
8
0
6
XKITLINE01
62
2
0
LINE
10
418112.859
20
6498288.609
30
0.000
11
418100.172
21
6498305.230
31
0.000
8
0
6
XKITLINE01
62
2
0
LINE
10
418142.879
20
6498269.789
30
0.000
11
418146.570
21
6498263.738
31
0.000
8
0
6
XKITLINE01
62
2
0
LINE
10
418188.641
20
6498303.301
30
0.000
11
418164.879
21
6498353.879
31
0.000
8
0
6
XKITLINE01
62
2
0
LINE
10
418181.129
20
6498295.191
30
0.000
11
418188.641
21
6498303.301
31
0.000
8
0
6
XKITLINE01
62
2
0
LINE
10
418164.898
20
6498285.930
30
0.000
11
418181.129
21
6498295.191
31
0.000
8
0
6
XKITLINE01
62
2
0
LINE
10
418141.430
20
6498272.422
30
0.000
11
418164.898
21
6498285.930
31
0.000
8
0
6
XKITLINE01
62
2
0
LINE
10
418142.879
20
6498269.789
30
0.000
11
418141.430
21
6498272.422
31
0.000
8
0
6
XKITLINE01
62
2
0
LINE
10
418146.570
20
6498263.738
30
0.000
11
418142.879
21
6498269.789
31
0.000
8
0
6
XKITLINE01
62
2
0
LINE
10
418149.500
20
6498259.340
30
0.000
11
418146.570
21
6498263.738
31
0.000
8
0
6
XKITLINE01
62
2
0
LINE
10
418156.230
20
6498248.250
30
0.000
11
418149.500
21
6498259.340
31
0.000
8
0
6
XKITLINE01
62
2
0
LINE
10
418165.250
20
6498232.328
30
0.000
11
418156.230
21
6498248.250
31
0.000
8
0
6
XKITLINE01
62
2
0
LINE
10
418169.121
20
6498224.660
30
0.000
11
418165.250
21
6498232.328
31
0.000
8
0
6
XKITLINE01
62
2
0
LINE
10
418255.852
20
6498267.141
30
0.000
11
418169.121
21
6498224.660
31
0.000
8
0
6
XKITLINE01
62
2
0
LINE
10
418264.480
20
6498271.371
30
0.000
11
418255.852
21
6498267.141
31
0.000
8
0
6
XKITLINE01
62
2
0
LINE
10
418264.238
20
6498272.559
30
0.000
11
418264.480
21
6498271.371
31
0.000
8
0
6
XKITLINE01
62
2
0
LINE
10
418263.078
20
6498274.520
30
0.000
11
418264.238
21
6498272.559
31
0.000
8
0
6
XKITLINE01
62
2
0
LINE
10
418259.859
20
6498277.109
30
0.000
11
418263.078
21
6498274.520
31
0.000
8
0
6
XKITLINE01
62
2
0
LINE
10
418256.629
20
6498281.809
30
0.000
11
418259.859
21
6498277.109
31
0.000
8
0
6
XKITLINE01
62
2
0
LINE
10
418252.340
20
6498294.352
30
0.000
11
418256.629
21
6498281.809
31
0.000
8
0
6
XKITLINE01
62
2
0
LINE
10
418248.859
20
6498305.500
30
0.000
11
418252.340
21
6498294.352
31
0.000
8
0
6
XKITLINE01
62
2
0
LINE
10
418248.801
20
6498309.301
30
0.000
11
418248.859
21
6498305.500
31
0.000
8
0
6
XKITLINE01
62
2
0
LINE
10
418263.879
20
6498328.109
30
0.000
11
418248.801
21
6498309.301
31
0.000
8
0
6
XKITLINE01
62
2
0
LINE
10
418279.180
20
6498349.270
30
0.000
11
418263.879
21
6498328.109
31
0.000
8
0
6
XKITLINE01
62
2
0
LINE
10
418285.602
20
6498372.129
30
0.000
11
418279.180
21
6498349.270
31
0.000
8
0
6
XKITLINE01
62
2
0
LINE
10
418284.121
20
6498383.949
30
0.000
11
418285.602
21
6498372.129
31
0.000
8
0
6
XKITLINE01
62
2
0
LINE
10
418277.891
20
6498384.941
30
0.000
11
418284.121
21
6498383.949
31
0.000
8
0
6
XKITLINE01
62
2
0
LINE
10
418274.230
20
6498381.000
30
0.000
11
418277.891
21
6498384.941
31
0.000
8
0
6
XKITLINE01
62
2
0
LINE
10
418273.809
20
6498369.609
30
0.000
11
418274.230
21
6498381.000
31
0.000
8
0
6
XKITLINE01
62
2
0
LINE
10
418271.352
20
6498358.211
30
0.000
11
418273.809
21
6498369.609
31
0.000
8
0
6
XKITLINE01
62
2
0
LINE
10
418267.500
20
6498349.512
30
0.000
11
418271.352
21
6498358.211
31
0.000
8
0
6
XKITLINE01
62
2
0
LINE
10
418243.469
20
6498320.449
30
0.000
11
418267.500
21
6498349.512
31
0.000
8
0
6
XKITLINE01
62
2
0
LINE
10
418242.281
20
6498320.199
30
0.000
11
418243.469
21
6498320.449
31
0.000
8
0
6
XKITLINE01
62
2
0
LINE
10
418240.000
20
6498320.500
30
0.000
11
418242.281
21
6498320.199
31
0.000
8
0
6
XKITLINE01
62
2
0
LINE
10
418232.371
20
6498324.512
30
0.000
11
418240.000
21
6498320.500
31
0.000
8
0
6
XKITLINE01
62
2
0
LINE
10
418234.840
20
6498327.910
30
0.000
11
418232.371
21
6498324.512
31
0.000
8
0
6
XKITLINE01
62
2
0
LINE
10
418215.512
20
6498342.199
30
0.000
11
418234.840
21
6498327.910
31
0.000
8
0
6
XKITLINE01
62
2
0
LINE
10
418213.738
20
6498339.730
30
0.000
11
418215.512
21
6498342.199
31
0.000
8
0
6
XKITLINE01
62
2
0
LINE
10
418209.730
20
6498334.500
30
0.000
11
418213.738
21
6498339.730
31
0.000
8
0
6
XKITLINE01
62
2
0
LINE
10
418196.871
20
6498344.309
30
0.000
11
418209.730
21
6498334.500
31
0.000
8
0
6
XKITLINE01
62
2
0
LINE
10
418189.031
20
6498356.770
30
0.000
11
418196.871
21
6498344.309
31
0.000
8
0
6
XKITLINE01
62
2
0
LINE
10
418231.578
20
6498402.750
30
0.000
11
418189.031
21
6498356.770
31
0.000
8
0
6
XKITLINE01
62
2
0
LINE
10
418230.680
20
6498403.641
30
0.000
11
418231.578
21
6498402.750
31
0.000
8
0
6
XKITLINE01
62
2
0
LINE
10
418233.660
20
6498405.129
30
0.000
11
418230.680
21
6498403.641
31
0.000
8
0
6
XKITLINE01
62
2
0
LINE
10
418243.789
20
6498407.020
30
0.000
11
418233.660
21
6498405.129
31
0.000
8
0
6
XKITLINE01
62
2
0
LINE
10
418256.840
20
6498406.852
30
0.000
11
418243.789
21
6498407.020
31
0.000
8
0
6
XKITLINE01
62
2
0
LINE
10
418279.988
20
6498402.590
30
0.000
11
418256.840
21
6498406.852
31
0.000
8
0
6
XKITLINE01
62
2
0
LINE
10
418307.531
20
6498401.910
30
0.000
11
418304.102
21
6498398.738
31
0.000
8
0
6
XKITLINE01
62
2
0
LINE
10
418305.461
20
6498405.988
30
0.000
11
418307.531
21
6498401.910
31
0.000
8
0
6
XKITLINE01
62
2
0
LINE
10
418279.000
20
6498412.121
30
0.000
11
418305.461
21
6498405.988
31
0.000
8
0
6
XKITLINE01
62
2
0
LINE
10
418304.102
20
6498398.738
30
0.000
11
418279.988
21
6498402.590
31
0.000
8
0
6
XKITLINE01
62
2
0
LINE
10
418264.840
20
6498417.461
30
0.000
11
418279.000
21
6498412.121
31
0.000
8
0
6
XKITLINE01
62
2
0
LINE
10
418249.961
20
6498420.359
30
0.000
11
418264.840
21
6498417.461
31
0.000
8
0
6
XKITLINE01
62
2
0
LINE
10
418237.262
20
6498419.070
30
0.000
11
418249.961
21
6498420.359
31
0.000
8
0
6
XKITLINE01
62
2
0
LINE
10
418225.801
20
6498416.250
30
0.000
11
418237.262
21
6498419.070
31
0.000
8
0
6
XKITLINE01
62
2
0
LINE
10
418216.262
20
6498408.949
30
0.000
11
418225.801
21
6498416.250
31
0.000
8
0
6
XKITLINE01
62
2
0
LINE
10
418208.121
20
6498401.730
30
0.000
11
418216.262
21
6498408.949
31
0.000
8
0
6
XKITLINE01
62
2
0
LINE
10
418197.371
20
6498394.500
30
0.000
11
418208.121
21
6498401.730
31
0.000
8
0
6
XKITLINE01
62
2
0
LINE
10
418188.852
20
6498391.281
30
0.000
11
418197.371
21
6498394.500
31
0.000
8
0
6
XKITLINE01
62
2
0
LINE
10
418184.750
20
6498390.719
30
0.000
11
418188.852
21
6498391.281
31
0.000
8
0
6
XKITLINE01
62
2
0
LINE
10
418179.621
20
6498391.980
30
0.000
11
418184.750
21
6498390.719
31
0.000
8
0
6
XKITLINE01
62
2
0
LINE
10
418175.148
20
6498394.699
30
0.000
11
418179.621
21
6498391.980
31
0.000
8
0
6
XKITLINE01
62
2
0
LINE
10
418159.719
20
6498396.480
30
0.000
11
418167.359
21
6498402.961
31
0.000
8
0
6
XKITLINE01
62
2
0
LINE
10
418149.160
20
6498387.531
30
0.000
11
418159.719
21
6498396.480
31
0.000
8
0
6
XKITLINE01
62
2
0
LINE
10
418164.879
20
6498353.879
30
0.000
11
418149.160
21
6498387.531
31
0.000
8
0
6
XKITLINE01
62
2
0
LINE
10
418167.359
20
6498402.961
30
0.000
11
418175.148
21
6498394.699
31
0.000
8
0
6
XKITLINE01
62
2
0
LINE
10
418139.699
20
6498343.230
30
0.000
11
418164.879
21
6498353.879
31
0.000
8
0
6
XKITLINE01
62
2
0
LINE
10
418164.898
20
6498285.930
30
0.000
11
418139.699
21
6498343.230
31
0.000
8
0
6
XKITLINE01
62
2
0
LINE
10
418188.641
20
6498303.301
30
0.000
11
418181.129
21
6498295.191
31
0.000
8
0
6
XKITLINE01
62
2
0
LINE
10
418164.879
20
6498353.879
30
0.000
11
418188.641
21
6498303.301
31
0.000
8
0
6
XKITLINE01
62
2
0
LINE
10
418172.512
20
6498216.672
30
0.000
11
418169.121
21
6498224.660
31
0.000
8
0
6
XKITLINE01
62
2
0
LINE
10
418187.191
20
6498185.320
30
0.000
11
418172.512
21
6498216.672
31
0.000
8
0
6
XKITLINE01
62
2
0
LINE
10
418207.576
20
6498140.255
30
0.000
11
418187.191
21
6498185.320
31
0.000
8
0
6
XKITLINE01
62
2
0
LINE
10
418181.129
20
6498295.191
30
0.000
11
418164.898
21
6498285.930
31
0.000
8
0
6
XKITLINE01
62
2
0
LINE
10
418284.371
20
6498143.930
30
0.000
11
418284.270
21
6498140.255
31
0.000
8
0
6
XKITLINE01
62
2
0
LINE
10
418285.281
20
6498152.891
30
0.000
11
418284.371
21
6498143.930
31
0.000
8
0
6
XKITLINE01
62
2
0
LINE
10
418288.480
20
6498159.160
30
0.000
11
418285.281
21
6498152.891
31
0.000
8
0
6
XKITLINE01
62
2
0
LINE
10
418290.559
20
6498161.949
30
0.000
11
418288.480
21
6498159.160
31
0.000
8
0
6
XKITLINE01
62
2
0
LINE
10
418293.102
20
6498167.430
30
0.000
11
418290.559
21
6498161.949
31
0.000
8
0
6
XKITLINE01
62
2
0
LINE
10
418293.070
20
6498170.930
30
0.000
11
418293.102
21
6498167.430
31
0.000
8
0
6
XKITLINE01
62
2
0
LINE
10
418292.039
20
6498173.789
30
0.000
11
418293.070
21
6498170.930
31
0.000
8
0
6
XKITLINE01
62
2
0
LINE
10
418290.801
20
6498175.262
30
0.000
11
418292.039
21
6498173.789
31
0.000
8
0
6
XKITLINE01
62
2
0
LINE
10
418289.031
20
6498176.660
30
0.000
11
418290.801
21
6498175.262
31
0.000
8
0
6
XKITLINE01
62
2
0
LINE
10
418286.828
20
6498180.148
30
0.000
11
418289.031
21
6498176.660
31
0.000
8
0
6
XKITLINE01
62
2
0
LINE
10
418286.051
20
6498185.602
30
0.000
11
418286.828
21
6498180.148
31
0.000
8
0
6
XKITLINE01
62
2
0
LINE
10
418295.051
20
6498215.711
30
0.000
11
418293.238
21
6498203.949
31
0.000
8
0
6
XKITLINE01
62
2
0
LINE
10
418295.148
20
6498220.801
30
0.000
11
418295.051
21
6498215.711
31
0.000
8
0
6
XKITLINE01
62
2
0
LINE
10
418294.762
20
6498225.469
30
0.000
11
418295.148
21
6498220.801
31
0.000
8
0
6
XKITLINE01
62
2
0
LINE
10
418293.238
20
6498203.949
30
0.000
11
418286.051
21
6498185.602
31
0.000
8
0
6
XKITLINE01
62
2
0
LINE
10
418293.391
20
6498231.672
30
0.000
11
418294.762
21
6498225.469
31
0.000
8
0
6
XKITLINE01
62
2
0
LINE
10
418292.691
20
6498234.102
30
0.000
11
418293.391
21
6498231.672
31
0.000
8
0
6
XKITLINE01
62
2
0
LINE
10
418291.270
20
6498236.078
30
0.000
11
418292.691
21
6498234.102
31
0.000
8
0
6
XKITLINE01
62
2
0
LINE
10
418290.020
20
6498236.922
30
0.000
11
418291.270
21
6498236.078
31
0.000
8
0
6
XKITLINE01
62
2
0
LINE
10
418288.129
20
6498237.531
30
0.000
11
418290.020
21
6498236.922
31
0.000
8
0
6
XKITLINE01
62
2
0
LINE
10
418280.910
20
6498236.609
30
0.000
11
418288.129
21
6498237.531
31
0.000
8
0
6
XKITLINE01
62
2
0
LINE
10
418277.422
20
6498237.488
30
0.000
11
418280.910
21
6498236.609
31
0.000
8
0
6
XKITLINE01
62
2
0
LINE
10
418274.449
20
6498239.789
30
0.000
11
418277.422
21
6498237.488
31
0.000
8
0
6
XKITLINE01
62
2
0
LINE
10
418265.559
20
6498253.102
30
0.000
11
418268.070
21
6498247.609
31
0.000
8
0
6
XKITLINE01
62
2
0
LINE
10
418264.969
20
6498257.219
30
0.000
11
418265.559
21
6498253.102
31
0.000
8
0
6
XKITLINE01
62
2
0
LINE
10
418264.941
20
6498261.172
30
0.000
11
418264.969
21
6498257.219
31
0.000
8
0
6
XKITLINE01
62
2
0
LINE
10
418268.070
20
6498247.609
30
0.000
11
418274.449
21
6498239.789
31
0.000
8
0
6
XKITLINE01
62
2
0
LINE
10
418266.301
20
6498265.199
30
0.000
11
418264.941
21
6498261.172
31
0.000
8
0
6
XKITLINE01
62
2
0
LINE
10
418266.859
20
6498268.500
30
0.000
11
418266.301
21
6498265.199
31
0.000
8
0
6
XKITLINE01
62
2
0
LINE
10
418266.801
20
6498270.512
30
0.000
11
418266.859
21
6498268.500
31
0.000
8
0
6
XKITLINE01
62
2
0
LINE
10
418264.480
20
6498271.371
30
0.000
11
418266.250
21
6498272.160
31
0.000
8
0
6
XKITLINE01
62
2
0
LINE
10
418255.852
20
6498267.141
30
0.000
11
418264.480
21
6498271.371
31
0.000
8
0
6
XKITLINE01
62
2
0
LINE
10
418169.121
20
6498224.660
30
0.000
11
418255.852
21
6498267.141
31
0.000
8
0
6
XKITLINE01
62
2
0
LINE
10
418266.250
20
6498272.160
30
0.000
11
418266.801
21
6498270.512
31
0.000
8
0
6
XKITLINE01
62
2
0
LINE
10
418140.879
20
6498247.090
30
0.000
11
418130.102
21
6498264.469
31
0.000
8
0
6
XKITLINE01
62
2
0
LINE
10
418150.141
20
6498230.859
30
0.000
11
418140.879
21
6498247.090
31
0.000
8
0
6
XKITLINE01
62
2
0
LINE
10
418161.320
20
6498209.340
30
0.000
11
418150.141
21
6498230.859
31
0.000
8
0
6
XKITLINE01
62
2
0
LINE
10
418170.262
20
6498191.359
30
0.000
11
418161.320
21
6498209.340
31
0.000
8
0
6
XKITLINE01
62
2
0
LINE
10
418182.801
20
6498164.129
30
0.000
11
418170.262
21
6498191.359
31
0.000
8
0
6
XKITLINE01
62
2
0
LINE
10
418193.207
20
6498140.255
30
0.000
11
418182.801
21
6498164.129
31
0.000
8
0
6
XKITLINE01
62
2
0
LINE
10
418187.191
20
6498185.320
30
0.000
11
418207.576
21
6498140.255
31
0.000
8
0
6
XKITLINE01
62
2
0
LINE
10
418172.512
20
6498216.672
30
0.000
11
418187.191
21
6498185.320
31
0.000
8
0
6
XKITLINE01
62
2
0
LINE
10
418169.121
20
6498224.660
30
0.000
11
418172.512
21
6498216.672
31
0.000
8
0
6
XKITLINE01
62
2
0
LINE
10
418165.250
20
6498232.328
30
0.000
11
418169.121
21
6498224.660
31
0.000
8
0
6
XKITLINE01
62
2
0
LINE
10
418156.230
20
6498248.250
30
0.000
11
418165.250
21
6498232.328
31
0.000
8
0
6
XKITLINE01
62
2
0
LINE
10
418149.500
20
6498259.340
30
0.000
11
418156.230
21
6498248.250
31
0.000
8
0
6
XKITLINE01
62
2
0
LINE
10
418146.570
20
6498263.738
30
0.000
11
418149.500
21
6498259.340
31
0.000
8
0
6
XKITLINE01
62
2
0
LINE
10
418021.734
20
6498529.020
30
0.000
11
418021.734
21
6498529.020
31
0.000
8
0
6
XKITLINE00
62
5
0
LINE
10
418021.734
20
6498529.020
30
0.000
11
418021.734
21
6498529.020
31
0.000
8
0
6
XKITLINE00
62
5
0
LINE
10
418074.215
20
6498206.771
30
0.000
11
418074.215
21
6498206.791
31
0.000
8
0
6
XKITLINE00
62
5
0
LINE
10
418074.215
20
6498206.791
30
0.000
11
418074.199
21
6498206.791
31
0.000
8
0
6
XKITLINE00
62
5
0
LINE
10
418074.199
20
6498206.791
30
0.000
11
418074.199
21
6498206.771
31
0.000
8
0
6
XKITLINE00
62
5
0
LINE
10
418074.199
20
6498206.771
30
0.000
11
418074.215
21
6498206.771
31
0.000
8
0
6
XKITLINE00
62
5
0
LINE
10
418074.215
20
6498206.785
30
0.000
11
418074.199
21
6498206.785
31
0.000
8
0
6
XKITLINE00
62
5
0
LINE
10
418074.200
20
6498206.777
30
0.000
11
418074.200
21
6498206.780
31
0.000
8
0
6
XKITLINE00
62
5
0
LINE
10
418074.200
20
6498206.778
30
0.000
11
418074.202
21
6498206.780
31
0.000
8
0
6
XKITLINE00
62
5
0
LINE
10
418074.201
20
6498206.778
30
0.000
11
418074.202
21
6498206.777
31
0.000
8
0
6
XKITLINE00
62
5
0
LINE
10
418074.204
20
6498206.780
30
0.000
11
418074.206
21
6498206.777
31
0.000
8
0
6
XKITLINE00
62
5
0
LINE
10
418074.206
20
6498206.777
30
0.000
11
418074.207
21
6498206.780
31
0.000
8
0
6
XKITLINE00
62
5
0
LINE
10
418074.207
20
6498206.780
30
0.000
11
418074.208
21
6498206.777
31
0.000
8
0
6
XKITLINE00
62
5
0
LINE
10
418074.208
20
6498206.777
30
0.000
11
418074.209
21
6498206.780
31
0.000
8
0
6
XKITLINE00
62
5
0
LINE
10
418074.211
20
6498206.780
30
0.000
11
418074.211
21
6498206.777
31
0.000
8
0
6
XKITLINE00
62
5
0
LINE
10
418074.214
20
6498206.778
30
0.000
11
418074.214
21
6498206.777
31
0.000
8
0
6
XKITLINE00
62
5
0
ARC
10
418074.213
20
6498206.778
30
0.000
40
0.002
50
29.745
51
150.255
8
0
6
XKITLINE00
62
5
0
LINE
10
417803.621
20
6498483.738
30
0.000
11
417803.621
21
6498486.738
31
0.000
8
0
6
XKITLINE00
62
3
0
LINE
10
417800.421
20
6498487.738
30
0.000
11
417806.821
21
6498487.738
31
0.000
8
0
6
XKITLINE00
62
3
0
LINE
10
417806.821
20
6498487.738
30
0.000
11
417806.821
21
6498486.738
31
0.000
8
0
6
XKITLINE00
62
3
0
LINE
10
417806.821
20
6498486.738
30
0.000
11
417800.421
21
6498486.738
31
0.000
8
0
6
XKITLINE00
62
3
0
LINE
10
417800.421
20
6498486.738
30
0.000
11
417800.421
21
6498487.738
31
0.000
8
0
6
XKITLINE00
62
3
0
LINE
10
417800.421
20
6498487.738
30
0.000
11
417800.421
21
6498487.738
31
0.000
8
0
6
XKITLINE00
62
3
0
LINE
10
417893.121
20
6498167.887
30
0.000
11
417891.069
21
6498170.075
31
0.000
8
0
6
XKITLINE00
62
3
0
LINE
10
417888.051
20
6498168.616
30
0.000
11
417892.720
21
6498172.993
31
0.000
8
0
6
XKITLINE00
62
3
0
LINE
10
417892.720
20
6498172.993
30
0.000
11
417893.404
21
6498172.264
31
0.000
8
0
6
XKITLINE00
62
3
0
LINE
10
417893.404
20
6498172.264
30
0.000
11
417888.735
21
6498167.887
31
0.000
8
0
6
XKITLINE00
62
3
0
LINE
10
417888.735
20
6498167.887
30
0.000
11
417888.051
21
6498168.616
31
0.000
8
0
6
XKITLINE00
62
3
0
LINE
10
417888.051
20
6498168.616
30
0.000
11
417888.051
21
6498168.616
31
0.000
8
0
6
XKITLINE00
62
3
0
LINE
10
418013.488
20
6498487.789
30
0.000
11
418013.488
21
6498490.789
31
0.000
8
0
6
XKITLINE00
62
5
0
LINE
10
418010.288
20
6498491.789
30
0.000
11
418016.688
21
6498491.789
31
0.000
8
0
6
XKITLINE00
62
5
0
LINE
10
418016.688
20
6498491.789
30
0.000
11
418016.688
21
6498490.789
31
0.000
8
0
6
XKITLINE00
62
5
0
LINE
10
418016.688
20
6498490.789
30
0.000
11
418010.288
21
6498490.789
31
0.000
8
0
6
XKITLINE00
62
5
0
LINE
10
418010.288
20
6498490.789
30
0.000
11
418010.288
21
6498491.789
31
0.000
8
0
6
XKITLINE00
62
5
0
LINE
10
418010.288
20
6498491.789
30
0.000
11
418010.288
21
6498491.789
31
0.000
8
0
6
XKITLINE00
62
5
0
LINE
10
418070.828
20
6498206.477
30
0.000
11
418070.822
21
6498206.477
31
0.000
8
0
6
XKITLINE00
62
7
0
LINE
10
418070.828
20
6498206.471
30
0.000
11
418070.828
21
6498206.483
31
0.000
8
0
6
XKITLINE00
62
7
0
LINE
10
418070.827
20
6498206.478
30
0.000
11
418070.828
21
6498206.479
31
0.000
8
0
6
XKITLINE00
62
7
0
LINE
10
418070.828
20
6498206.479
30
0.000
11
418070.830
21
6498206.478
31
0.000
8
0
6
XKITLINE00
62
7
0
LINE
10
418070.830
20
6498206.478
30
0.000
11
418070.830
21
6498206.477
31
0.000
8
0
6
XKITLINE00
62
7
0
LINE
10
418070.830
20
6498206.477
30
0.000
11
418070.830
21
6498206.475
31
0.000
8
0
6
XKITLINE00
62
7
0
LINE
10
418070.830
20
6498206.475
30
0.000
11
418070.828
21
6498206.475
31
0.000
8
0
6
XKITLINE00
62
7
0
LINE
10
418070.828
20
6498206.475
30
0.000
11
418070.827
21
6498206.475
31
0.000
8
0
6
XKITLINE00
62
7
0
LINE
10
418070.827
20
6498206.475
30
0.000
11
418070.826
21
6498206.477
31
0.000
8
0
6
XKITLINE00
62
7
0
LINE
10
418070.826
20
6498206.477
30
0.000
11
418070.827
21
6498206.478
31
0.000
8
0
6
XKITLINE00
62
7
0
LINE
10
418070.827
20
6498206.478
30
0.000
11
418070.827
21
6498206.478
31
0.000
8
0
6
XKITLINE00
62
7
0
LINE
10
418015.130
20
6498488.586
30
0.000
11
418015.992
21
6498487.005
31
0.000
8
0
6
XKITLINE00
62
5
0
LINE
10
418015.992
20
6498487.005
30
0.000
11
418012.831
21
6498485.282
31
0.000
8
0
6
XKITLINE00
62
5
0
LINE
10
418012.831
20
6498485.282
30
0.000
11
418011.969
21
6498486.862
31
0.000
8
0
6
XKITLINE00
62
5
0
LINE
10
418011.969
20
6498486.862
30
0.000
11
418015.130
21
6498488.586
31
0.000
8
0
6
XKITLINE00
62
5
0
LINE
10
418015.130
20
6498488.586
30
0.000
11
418012.831
21
6498485.282
31
0.000
8
0
6
XKITLINE00
62
5
0
LINE
10
418013.550
20
6498487.724
30
0.000
11
418012.400
21
6498486.072
31
0.000
8
0
6
XKITLINE00
62
5
0
LINE
10
418076.007
20
6498207.646
30
0.000
11
418076.007
21
6498205.846
31
0.000
8
0
6
XKITLINE00
62
5
0
LINE
10
418076.007
20
6498205.846
30
0.000
11
418072.407
21
6498205.846
31
0.000
8
0
6
XKITLINE00
62
5
0
LINE
10
418072.407
20
6498205.846
30
0.000
11
418072.407
21
6498207.646
31
0.000
8
0
6
XKITLINE00
62
5
0
LINE
10
418072.407
20
6498207.646
30
0.000
11
418076.007
21
6498207.646
31
0.000
8
0
6
XKITLINE00
62
5
0
LINE
10
418076.007
20
6498207.646
30
0.000
11
418072.407
21
6498205.846
31
0.000
8
0
6
XKITLINE00
62
5
0
LINE
10
418074.207
20
6498207.646
30
0.000
11
418072.407
21
6498206.746
31
0.000
8
0
6
XKITLINE00
62
5
0
LINE
10
417804.721
20
6498485.538
30
0.000
11
417806.521
21
6498485.538
31
0.000
8
0
6
XKITLINE00
62
3
0
LINE
10
417806.521
20
6498485.538
30
0.000
11
417806.521
21
6498481.938
31
0.000
8
0
6
XKITLINE00
62
3
0
LINE
10
417806.521
20
6498481.938
30
0.000
11
417804.721
21
6498481.938
31
0.000
8
0
6
XKITLINE00
62
3
0
LINE
10
417804.721
20
6498481.938
30
0.000
11
417804.721
21
6498485.538
31
0.000
8
0
6
XKITLINE00
62
3
0
LINE
10
417804.721
20
6498485.538
30
0.000
11
417806.521
21
6498481.938
31
0.000
8
0
6
XKITLINE00
62
3
0
LINE
10
417893.233
20
6498168.584
30
0.000
11
417894.547
21
6498169.815
31
0.000
8
0
6
XKITLINE00
62
3
0
LINE
10
417894.547
20
6498169.815
30
0.000
11
417897.009
21
6498167.189
31
0.000
8
0
6
XKITLINE00
62
3
0
LINE
10
417897.009
20
6498167.189
30
0.000
11
417895.696
21
6498165.958
31
0.000
8
0
6
XKITLINE00
62
3
0
LINE
10
417895.696
20
6498165.958
30
0.000
11
417893.233
21
6498168.584
31
0.000
8
0
6
XKITLINE00
62
3
0
LINE
10
417893.233
20
6498168.584
30
0.000
11
417897.009
21
6498167.189
31
0.000
8
0
6
XKITLINE00
62
3
0
LINE
10
418070.828
20
6498206.434
30
0.000
11
418070.828
21
6498206.442
31
0.000
8
0
6
XKITLINE00
62
7
0
LINE
10
418070.816
20
6498206.466
30
0.000
11
418070.828
21
6498206.442
31
0.000
8
0
6
XKITLINE00
62
7
0
CIRCLE
10
418070.828
20
6498206.466
30
0.000
40
0.002
8
0
6
XKITLINE00
62
7
0
LINE
10
418070.828
20
6498206.476
30
0.000
11
418070.828
21
6498206.468
31
0.000
8
0
6
XKITLINE00
62
7
0
LINE
10
418070.822
20
6498206.472
30
0.000
11
418070.834
21
6498206.472
31
0.000
8
0
6
XKITLINE00
62
7
0
LINE
10
418070.822
20
6498206.447
30
0.000
11
418070.828
21
6498206.449
31
0.000
8
0
6
XKITLINE00
62
7
0
LINE
10
418070.828
20
6498206.449
30
0.000
11
418070.822
21
6498206.460
31
0.000
8
0
6
XKITLINE00
62
7
0
LINE
10
418070.822
20
6498206.460
30
0.000
11
418070.817
21
6498206.457
31
0.000
8
0
6
XKITLINE00
62
7
0
LINE
10
418070.817
20
6498206.457
30
0.000
11
418070.822
21
6498206.447
31
0.000
8
0
6
XKITLINE00
62
7
0
LINE
10
418070.938
20
6498206.434
30
0.000
11
418070.937
21
6498206.442
31
0.000
8
0
6
XKITLINE00
62
7
0
LINE
10
418070.925
20
6498206.466
30
0.000
11
418070.937
21
6498206.442
31
0.000
8
0
6
XKITLINE00
62
7
0
CIRCLE
10
418070.937
20
6498206.466
30
0.000
40
0.002
8
0
6
XKITLINE00
62
7
0
LINE
10
418070.937
20
6498206.476
30
0.000
11
418070.937
21
6498206.468
31
0.000
8
0
6
XKITLINE00
62
7
0
LINE
10
418070.931
20
6498206.472
30
0.000
11
418070.943
21
6498206.472
31
0.000
8
0
6
XKITLINE00
62
7
0
LINE
10
418070.932
20
6498206.447
30
0.000
11
418070.937
21
6498206.449
31
0.000
8
0
6
XKITLINE00
62
7
0
LINE
10
418070.937
20
6498206.449
30
0.000
11
418070.932
21
6498206.460
31
0.000
8
0
6
XKITLINE00
62
7
0
LINE
10
418070.932
20
6498206.460
30
0.000
11
418070.926
21
6498206.457
31
0.000
8
0
6
XKITLINE00
62
7
0
LINE
10
418070.926
20
6498206.457
30
0.000
11
418070.932
21
6498206.447
31
0.000
8
0
6
XKITLINE00
62
7
0
LINE
10
418070.822
20
6498206.434
30
0.000
11
418070.834
21
6498206.434
31
0.000
8
0
6
XKITLINE00
62
7
0
LINE
10
418070.834
20
6498206.434
30
0.000
11
418070.828
21
6498206.422
31
0.000
8
0
6
XKITLINE00
62
7
0
LINE
10
418070.828
20
6498206.422
30
0.000
11
418070.822
21
6498206.434
31
0.000
8
0
6
XKITLINE00
62
7
0
LINE
10
418070.931
20
6498206.434
30
0.000
11
418070.944
21
6498206.434
31
0.000
8
0
6
XKITLINE00
62
7
0
LINE
10
418070.944
20
6498206.434
30
0.000
11
418070.938
21
6498206.422
31
0.000
8
0
6
XKITLINE00
62
7
0
LINE
10
418070.938
20
6498206.422
30
0.000
11
418070.931
21
6498206.434
31
0.000
8
0
6
XKITLINE00
62
7
0
CIRCLE
10
418070.828
20
6498206.762
30
0.000
40
0.001
8
0
6
XKITLINE00
62
4
0
LINE
10
418070.827
20
6498206.763
30
0.000
11
418070.828
21
6498206.763
31
0.000
8
0
6
XKITLINE00
62
4
0
LINE
10
418070.828
20
6498206.763
30
0.000
11
418070.829
21
6498206.763
31
0.000
8
0
6
XKITLINE00
62
4
0
LINE
10
418070.829
20
6498206.763
30
0.000
11
418070.830
21
6498206.762
31
0.000
8
0
6
XKITLINE00
62
4
0
LINE
10
418070.830
20
6498206.762
30
0.000
11
418070.829
21
6498206.761
31
0.000
8
0
6
XKITLINE00
62
4
0
LINE
10
418070.829
20
6498206.761
30
0.000
11
418070.828
21
6498206.760
31
0.000
8
0
6
XKITLINE00
62
4
0
LINE
10
418070.828
20
6498206.760
30
0.000
11
418070.827
21
6498206.761
31
0.000
8
0
6
XKITLINE00
62
4
0
LINE
10
418070.827
20
6498206.761
30
0.000
11
418070.827
21
6498206.762
31
0.000
8
0
6
XKITLINE00
62
4
0
LINE
10
418070.827
20
6498206.762
30
0.000
11
418070.827
21
6498206.763
31
0.000
8
0
6
XKITLINE00
62
4
0
LINE
10
418070.827
20
6498206.763
30
0.000
11
418070.827
21
6498206.763
31
0.000
8
0
6
XKITLINE00
62
4
0
CIRCLE
10
418070.828
20
6498206.762
30
0.000
40
0.005
8
0
6
XKITLINE00
62
1
0
LINE
10
418068.149
20
6498205.067
30
0.000
11
418068.440
21
6498203.932
31
0.000
8
0
6
XKITLINE00
62
2
0
LINE
10
418068.149
20
6498205.067
30
0.000
11
418067.531
21
6498204.309
31
0.000
8
0
6
XKITLINE00
62
2
0
LINE
10
418067.531
20
6498204.309
30
0.000
11
418068.440
21
6498203.932
31
0.000
8
0
6
XKITLINE00
62
2
0
LINE
10
418070.876
20
6498206.725
30
0.000
11
418070.876
21
6498206.728
31
0.000
8
0
6
XKITLINE00
62
7
0
LINE
10
418070.873
20
6498206.724
30
0.000
11
418070.873
21
6498206.730
31
0.000
8
0
6
XKITLINE00
62
7
0
LINE
10
418070.870
20
6498206.721
30
0.000
11
418070.870
21
6498206.733
31
0.000
8
0
6
XKITLINE00
62
7
0
LINE
10
418070.828
20
6498206.727
30
0.000
11
418070.846
21
6498206.727
31
0.000
8
0
6
XKITLINE00
62
7
0
LINE
10
418070.828
20
6498206.721
30
0.000
11
418070.828
21
6498206.733
31
0.000
8
0
6
XKITLINE00
62
7
0
LINE
10
418070.840
20
6498206.721
30
0.000
11
418070.846
21
6498206.727
31
0.000
8
0
6
XKITLINE00
62
7
0
LINE
10
418070.846
20
6498206.727
30
0.000
11
418070.840
21
6498206.733
31
0.000
8
0
6
XKITLINE00
62
7
0
LINE
10
418070.840
20
6498206.733
30
0.000
11
418070.840
21
6498206.733
31
0.000
8
0
6
XKITLINE00
62
7
0
LINE
10
418070.852
20
6498206.727
30
0.000
11
418070.858
21
6498206.733
31
0.000
8
0
6
XKITLINE00
62
7
0
LINE
10
418070.858
20
6498206.733
30
0.000
11
418070.858
21
6498206.733
31
0.000
8
0
6
XKITLINE00
62
7
0
LINE
10
418070.852
20
6498206.727
30
0.000
11
418070.858
21
6498206.721
31
0.000
8
0
6
XKITLINE00
62
7
0
LINE
10
418070.852
20
6498206.727
30
0.000
11
418070.870
21
6498206.727
31
0.000
8
0
6
XKITLINE00
62
7
0
LINE
10
418071.302
20
6498199.076
30
0.000
11
418068.579
21
6498202.006
31
0.000
8
0
6
XKITLINE00
62
7
0
LINE
10
418072.474
20
6498200.165
30
0.000
11
418071.302
21
6498199.076
31
0.000
8
0
6
XKITLINE00
62
7
0
LINE
10
418070.316
20
6498203.075
30
0.000
11
418070.861
21
6498202.489
31
0.000
8
0
6
XKITLINE00
62
7
0
LINE
10
418070.861
20
6498202.489
30
0.000
11
418070.192
21
6498199.683
31
0.000
8
0
6
XKITLINE00
62
7
0
LINE
10
418070.192
20
6498199.683
30
0.000
11
418070.737
21
6498199.097
31
0.000
8
0
6
XKITLINE00
62
7
0
LINE
10
418069.751
20
6498203.095
30
0.000
11
418072.474
21
6498200.165
31
0.000
8
0
6
XKITLINE00
62
7
0
LINE
10
418068.579
20
6498202.006
30
0.000
11
418069.751
21
6498203.095
31
0.000
8
0
6
XKITLINE00
62
7
0
LINE
10
418067.531
20
6498204.309
30
0.000
11
418069.165
21
6498202.551
31
0.000
8
0
6
XKITLINE00
62
7
0
LINE
10
418071.888
20
6498199.621
30
0.000
11
418072.705
21
6498198.742
31
0.000
8
0
6
XKITLINE00
62
7
0
LINE
10
418073.584
20
6498199.559
30
0.000
11
418071.826
21
6498197.925
31
0.000
8
0
6
XKITLINE00
62
7
0
LINE
10
418073.563
20
6498198.993
30
0.000
11
418072.392
21
6498197.904
31
0.000
8
0
6
XKITLINE00
62
7
0
LINE
10
418073.543
20
6498198.428
30
0.000
11
418072.957
21
6498197.883
31
0.000
8
0
6
XKITLINE00
62
7
0
LINE
10
418070.828
20
6498206.531
30
0.000
11
418070.828
21
6498206.543
31
0.000
8
0
6
XKITLINE00
62
4
0
CIRCLE
10
418070.828
20
6498206.561
30
0.000
40
0.018
8
0
6
XKITLINE00
62
4
0
CIRCLE
10
418070.828
20
6498206.585
30
0.000
40
0.018
8
0
6
XKITLINE00
62
4
0
LINE
10
418070.828
20
6498206.603
30
0.000
11
418070.828
21
6498206.615
31
0.000
8
0
6
XKITLINE00
62
4
0
LINE
10
418070.828
20
6498206.666
30
0.000
11
418070.828
21
6498206.690
31
0.000
8
0
6
XKITLINE00
62
7
0
LINE
10
418070.834
20
6498206.690
30
0.000
11
418070.834
21
6498206.666
31
0.000
8
0
6
XKITLINE00
62
7
0
LINE
10
418070.822
20
6498206.690
30
0.000
11
418070.834
21
6498206.690
31
0.000
8
0
6
XKITLINE00
62
7
0
LINE
10
418070.828
20
6498206.696
30
0.000
11
418070.828
21
6498206.690
31
0.000
8
0
6
XKITLINE00
62
7
0
LINE
10
418070.822
20
6498206.666
30
0.000
11
418070.822
21
6498206.690
31
0.000
8
0
6
XKITLINE00
62
7
0
LINE
10
418070.834
20
6498206.666
30
0.000
11
418070.822
21
6498206.666
31
0.000
8
0
6
XKITLINE00
62
7
0
LINE
10
418070.828
20
6498206.700
30
0.000
11
418070.828
21
6498206.706
31
0.000
8
0
6
XKITLINE00
62
7
0
LINE
10
418070.828
20
6498206.656
30
0.000
11
418070.828
21
6498206.650
31
0.000
8
0
6
XKITLINE00
62
7
0
LINE
10
418070.828
20
6498206.666
30
0.000
11
418070.828
21
6498206.660
31
0.000
8
0
6
XKITLINE00
62
7
0
LINE
10
418070.828
20
6498206.696
30
0.000
11
418070.835
21
6498206.701
31
0.000
8
0
6
XKITLINE00
62
7
0
LINE
10
418070.828
20
6498206.696
30
0.000
11
418070.821
21
6498206.701
31
0.000
8
0
6
XKITLINE00
62
7
0
LINE
10
418070.828
20
6498206.660
30
0.000
11
418070.835
21
6498206.655
31
0.000
8
0
6
XKITLINE00
62
7
0
LINE
10
418070.821
20
6498206.655
30
0.000
11
418070.828
21
6498206.660
31
0.000
8
0
6
XKITLINE00
62
7
0
LINE
10
418070.828
20
6498206.656
30
0.000
11
418070.835
21
6498206.651
31
0.000
8
0
6
XKITLINE00
62
7
0
LINE
10
418070.821
20
6498206.651
30
0.000
11
418070.828
21
6498206.656
31
0.000
8
0
6
XKITLINE00
62
7
0
LINE
10
418070.828
20
6498206.700
30
0.000
11
418070.821
21
6498206.705
31
0.000
8
0
6
XKITLINE00
62
7
0
LINE
10
418070.828
20
6498206.700
30
0.000
11
418070.835
21
6498206.705
31
0.000
8
0
6
XKITLINE00
62
7
0
CIRCLE
10
418062.117
20
6498198.188
30
0.000
40
2.030
8
0
6
XKITLINE00
62
7
0
CIRCLE
10
417746.688
20
6498536.957
30
0.000
40
2.030
8
0
6
XKITLINE00
62
7
0
CIRCLE
10
418116.629
20
6498234.531
30
0.000
40
2.030
8
0
6
XKITLINE00
62
7
0
CIRCLE
10
418073.742
20
6498208.121
30
0.000
40
2.030
8
0
6
XKITLINE00
62
7
0
CIRCLE
10
417793.754
20
6498573.703
30
0.000
40
2.030
8
0
6
XKITLINE00
62
7
0
LINE
10
418021.994
20
6498162.551
30
0.000
11
418026.039
21
6498162.542
31
0.000
8
0
6
XKITLINE00
62
7
0
CIRCLE
10
418024.020
20
6498164.020
30
0.000
40
2.502
8
0
6
XKITLINE00
62
7
0
LINE
10
418024.020
20
6498166.522
30
0.000
11
418021.994
21
6498162.551
31
0.000
8
0
6
XKITLINE00
62
7
0
LINE
10
418024.020
20
6498166.522
30
0.000
11
418026.039
21
6498162.542
31
0.000
8
0
6
XKITLINE00
62
7
0
CIRCLE
10
418067.531
20
6498204.309
30
0.000
40
2.030
8
0
6
XKITLINE00
62
7
0
LINE
10
418062.117
20
6498198.188
30
0.000
11
418062.587
21
6498197.756
31
0.000
8
0
6
XKITLINE00
62
7
0
LINE
10
418063.526
20
6498196.895
30
0.000
11
418065.404
21
6498195.171
31
0.000
8
0
6
XKITLINE00
62
7
0
LINE
10
418064.112
20
6498193.762
30
0.000
11
418066.697
21
6498196.580
31
0.000
8
0
6
XKITLINE00
62
7
0
LINE
10
418063.056
20
6498197.326
30
0.000
11
418062.587
21
6498197.756
31
0.000
8
0
6
XKITLINE00
62
7
0
LINE
10
418066.852
20
6498192.978
30
0.000
11
418067.714
21
6498193.917
31
0.000
8
0
6
XKITLINE00
62
7
0
LINE
10
418063.526
20
6498196.895
30
0.000
11
418063.056
21
6498197.326
31
0.000
8
0
6
XKITLINE00
62
7
0
LINE
10
418065.482
20
6498193.370
30
0.000
11
418067.206
21
6498195.249
31
0.000
8
0
6
XKITLINE00
62
7
0
LINE
10
418073.742
20
6498208.121
30
0.000
11
418074.380
21
6498208.122
31
0.000
8
0
6
XKITLINE00
62
7
0
LINE
10
418075.654
20
6498208.125
30
0.000
11
418078.204
21
6498208.129
31
0.000
8
0
6
XKITLINE00
62
7
0
LINE
10
418078.207
20
6498206.217
30
0.000
11
418078.200
21
6498210.042
31
0.000
8
0
6
XKITLINE00
62
7
0
LINE
10
418075.017
20
6498208.124
30
0.000
11
418074.380
21
6498208.122
31
0.000
8
0
6
XKITLINE00
62
7
0
LINE
10
418080.754
20
6498207.497
30
0.000
11
418080.752
21
6498208.772
31
0.000
8
0
6
XKITLINE00
62
7
0
LINE
10
418075.654
20
6498208.125
30
0.000
11
418075.017
21
6498208.124
31
0.000
8
0
6
XKITLINE00
62
7
0
LINE
10
418079.481
20
6498206.857
30
0.000
11
418079.476
21
6498209.407
31
0.000
8
0
6
XKITLINE00
62
7
0
LINE
10
418013.980
20
6498486.934
30
0.000
11
418014.368
21
6498487.439
31
0.000
8
0
6
XKITLINE00
62
5
0
LINE
10
418015.144
20
6498488.451
30
0.000
11
418016.696
21
6498490.474
31
0.000
8
0
6
XKITLINE00
62
5
0
LINE
10
418018.213
20
6498489.310
30
0.000
11
418015.178
21
6498491.637
31
0.000
8
0
6
XKITLINE00
62
5
0
LINE
10
418014.756
20
6498487.945
30
0.000
11
418014.368
21
6498487.439
31
0.000
8
0
6
XKITLINE00
62
5
0
LINE
10
418018.753
20
6498492.109
30
0.000
11
418017.741
21
6498492.884
31
0.000
8
0
6
XKITLINE00
62
5
0
LINE
10
418015.144
20
6498488.451
30
0.000
11
418014.756
21
6498487.945
31
0.000
8
0
6
XKITLINE00
62
5
0
LINE
10
418018.483
20
6498490.710
30
0.000
11
418016.460
21
6498492.261
31
0.000
8
0
6
XKITLINE00
62
5
0
LINE
10
418067.531
20
6498204.309
30
0.000
11
418066.907
21
6498204.439
31
0.000
8
0
6
XKITLINE00
62
7
0
LINE
10
418065.659
20
6498204.699
30
0.000
11
418063.164
21
6498205.218
31
0.000
8
0
6
XKITLINE00
62
7
0
LINE
10
418063.554
20
6498207.090
30
0.000
11
418062.774
21
6498203.347
31
0.000
8
0
6
XKITLINE00
62
7
0
LINE
10
418066.283
20
6498204.569
30
0.000
11
418066.907
21
6498204.439
31
0.000
8
0
6
XKITLINE00
62
7
0
LINE
10
418060.798
20
6498206.362
30
0.000
11
418060.538
21
6498205.114
31
0.000
8
0
6
XKITLINE00
62
7
0
LINE
10
418065.659
20
6498204.699
30
0.000
11
418066.283
21
6498204.569
31
0.000
8
0
6
XKITLINE00
62
7
0
LINE
10
418062.176
20
6498206.726
30
0.000
11
418061.656
21
6498204.230
31
0.000
8
0
6
XKITLINE00
62
7
0
CIRCLE
10
418070.828
20
6498206.762
30
0.000
40
5.250
8
0
6
XKITLINE00
62
1
0
CIRCLE
10
418070.828
20
6498206.762
30
0.000
40
4.900
8
0
6
XKITLINE00
62
1
0
CIRCLE
10
418070.828
20
6498206.762
30
0.000
40
4.550
8
0
6
XKITLINE00
62
1
0
LINE
10
418070.823
20
6498206.762
30
0.000
11
418070.833
21
6498206.762
31
0.000
8
0
6
XKITLINE00
62
1
0
LINE
10
418070.828
20
6498206.757
30
0.000
11
418070.828
21
6498206.767
31
0.000
8
0
6
XKITLINE00
62
1
0
LINE
10
418070.828
20
6498206.555
30
0.000
11
418070.828
21
6498206.546
31
0.000
8
0
6
XKITLINE00
62
7
0
LINE
10
418070.837
20
6498206.559
30
0.000
11
418070.828
21
6498206.555
31
0.000
8
0
6
XKITLINE00
62
7
0
LINE
10
418070.819
20
6498206.559
30
0.000
11
418070.828
21
6498206.555
31
0.000
8
0
6
XKITLINE00
62
7
0
LINE
10
418070.828
20
6498206.599
30
0.000
11
418070.819
21
6498206.585
31
0.000
8
0
6
XKITLINE00
62
7
0
LINE
10
418070.819
20
6498206.585
30
0.000
11
418070.837
21
6498206.585
31
0.000
8
0
6
XKITLINE00
62
7
0
LINE
10
418070.837
20
6498206.585
30
0.000
11
418070.828
21
6498206.599
31
0.000
8
0
6
XKITLINE00
62
7
0
LINE
10
418070.828
20
6498206.599
30
0.000
11
418070.828
21
6498206.599
31
0.000
8
0
6
XKITLINE00
62
7
0
LINE
10
418070.272
20
6498214.003
30
0.000
11
418070.282
21
6498214.025
31
0.000
8
0
6
XKITLINE00
62
7
0
LINE
10
418070.282
20
6498214.025
30
0.000
11
418070.293
21
6498214.047
31
0.000
8
0
6
XKITLINE00
62
7
0
LINE
10
418070.293
20
6498214.047
30
0.000
11
418070.304
21
6498214.069
31
0.000
8
0
6
XKITLINE00
62
7
0
LINE
10
418070.304
20
6498214.069
30
0.000
11
418070.315
21
6498214.091
31
0.000
8
0
6
XKITLINE00
62
7
0
LINE
10
418070.315
20
6498214.091
30
0.000
11
418070.327
21
6498214.113
31
0.000
8
0
6
XKITLINE00
62
7
0
LINE
10
418070.327
20
6498214.113
30
0.000
11
418070.340
21
6498214.134
31
0.000
8
0
6
XKITLINE00
62
7
0
LINE
10
418070.340
20
6498214.134
30
0.000
11
418070.353
21
6498214.155
31
0.000
8
0
6
XKITLINE00
62
7
0
LINE
10
418070.353
20
6498214.155
30
0.000
11
418070.366
21
6498214.175
31
0.000
8
0
6
XKITLINE00
62
7
0
LINE
10
418070.366
20
6498214.175
30
0.000
11
418070.380
21
6498214.195
31
0.000
8
0
6
XKITLINE00
62
7
0
LINE
10
418070.380
20
6498214.195
30
0.000
11
418070.395
21
6498214.215
31
0.000
8
0
6
XKITLINE00
62
7
0
LINE
10
418070.395
20
6498214.215
30
0.000
11
418070.410
21
6498214.234
31
0.000
8
0
6
XKITLINE00
62
7
0
LINE
10
418070.410
20
6498214.234
30
0.000
11
418070.425
21
6498214.253
31
0.000
8
0
6
XKITLINE00
62
7
0
LINE
10
418070.425
20
6498214.253
30
0.000
11
418070.441
21
6498214.272
31
0.000
8
0
6
XKITLINE00
62
7
0
LINE
10
418070.441
20
6498214.272
30
0.000
11
418070.457
21
6498214.290
31
0.000
8
0
6
XKITLINE00
62
7
0
LINE
10
418070.457
20
6498214.290
30
0.000
11
418070.474
21
6498214.308
31
0.000
8
0
6
XKITLINE00
62
7
0
LINE
10
418070.474
20
6498214.308
30
0.000
11
418070.491
21
6498214.326
31
0.000
8
0
6
XKITLINE00
62
7
0
LINE
10
418070.491
20
6498214.326
30
0.000
11
418070.509
21
6498214.343
31
0.000
8
0
6
XKITLINE00
62
7
0
LINE
10
418070.509
20
6498214.343
30
0.000
11
418070.527
21
6498214.359
31
0.000
8
0
6
XKITLINE00
62
7
0
LINE
10
418070.527
20
6498214.359
30
0.000
11
418070.546
21
6498214.375
31
0.000
8
0
6
XKITLINE00
62
7
0
LINE
10
418070.546
20
6498214.375
30
0.000
11
418070.565
21
6498214.391
31
0.000
8
0
6
XKITLINE00
62
7
0
LINE
10
418070.565
20
6498214.391
30
0.000
11
418070.584
21
6498214.406
31
0.000
8
0
6
XKITLINE00
62
7
0
LINE
10
418070.584
20
6498214.406
30
0.000
11
418070.604
21
6498214.421
31
0.000
8
0
6
XKITLINE00
62
7
0
LINE
10
418070.604
20
6498214.421
30
0.000
11
418070.623
21
6498214.435
31
0.000
8
0
6
XKITLINE00
62
7
0
LINE
10
418070.623
20
6498214.435
30
0.000
11
418070.644
21
6498214.449
31
0.000
8
0
6
XKITLINE00
62
7
0
LINE
10
418070.644
20
6498214.449
30
0.000
11
418070.664
21
6498214.462
31
0.000
8
0
6
XKITLINE00
62
7
0
LINE
10
418070.664
20
6498214.462
30
0.000
11
418070.685
21
6498214.475
31
0.000
8
0
6
XKITLINE00
62
7
0
LINE
10
418070.685
20
6498214.475
30
0.000
11
418070.707
21
6498214.487
31
0.000
8
0
6
XKITLINE00
62
7
0
LINE
10
418070.707
20
6498214.487
30
0.000
11
418070.728
21
6498214.499
31
0.000
8
0
6
XKITLINE00
62
7
0
LINE
10
418070.728
20
6498214.499
30
0.000
11
418070.750
21
6498214.510
31
0.000
8
0
6
XKITLINE00
62
7
0
LINE
10
418070.750
20
6498214.510
30
0.000
11
418070.772
21
6498214.521
31
0.000
8
0
6
XKITLINE00
62
7
0
LINE
10
418070.772
20
6498214.521
30
0.000
11
418070.795
21
6498214.531
31
0.000
8
0
6
XKITLINE00
62
7
0
LINE
10
418070.795
20
6498214.531
30
0.000
11
418070.817
21
6498214.540
31
0.000
8
0
6
XKITLINE00
62
7
0
LINE
10
418070.817
20
6498214.540
30
0.000
11
418070.840
21
6498214.549
31
0.000
8
0
6
XKITLINE00
62
7
0
LINE
10
418070.840
20
6498214.549
30
0.000
11
418070.863
21
6498214.558
31
0.000
8
0
6
XKITLINE00
62
7
0
LINE
10
418070.863
20
6498214.558
30
0.000
11
418070.887
21
6498214.565
31
0.000
8
0
6
XKITLINE00
62
7
0
LINE
10
418070.887
20
6498214.565
30
0.000
11
418070.910
21
6498214.573
31
0.000
8
0
6
XKITLINE00
62
7
0
LINE
10
418070.910
20
6498214.573
30
0.000
11
418070.934
21
6498214.579
31
0.000
8
0
6
XKITLINE00
62
7
0
LINE
10
418070.934
20
6498214.579
30
0.000
11
418070.957
21
6498214.585
31
0.000
8
0
6
XKITLINE00
62
7
0
LINE
10
418070.957
20
6498214.585
30
0.000
11
418070.981
21
6498214.591
31
0.000
8
0
6
XKITLINE00
62
7
0
LINE
10
418070.981
20
6498214.591
30
0.000
11
418071.005
21
6498214.596
31
0.000
8
0
6
XKITLINE00
62
7
0
LINE
10
418071.005
20
6498214.596
30
0.000
11
418071.029
21
6498214.600
31
0.000
8
0
6
XKITLINE00
62
7
0
LINE
10
418071.029
20
6498214.600
30
0.000
11
418071.054
21
6498214.604
31
0.000
8
0
6
XKITLINE00
62
7
0
LINE
10
418071.054
20
6498214.604
30
0.000
11
418071.078
21
6498214.607
31
0.000
8
0
6
XKITLINE00
62
7
0
LINE
10
418071.078
20
6498214.607
30
0.000
11
418071.102
21
6498214.610
31
0.000
8
0
6
XKITLINE00
62
7
0
LINE
10
418071.102
20
6498214.610
30
0.000
11
418071.127
21
6498214.612
31
0.000
8
0
6
XKITLINE00
62
7
0
LINE
10
418071.127
20
6498214.612
30
0.000
11
418071.151
21
6498214.613
31
0.000
8
0
6
XKITLINE00
62
7
0
LINE
10
418071.151
20
6498214.613
30
0.000
11
418071.176
21
6498214.614
31
0.000
8
0
6
XKITLINE00
62
7
0
LINE
10
418071.176
20
6498214.614
30
0.000
11
418071.201
21
6498214.614
31
0.000
8
0
6
XKITLINE00
62
7
0
LINE
10
418071.201
20
6498214.614
30
0.000
11
418071.225
21
6498214.613
31
0.000
8
0
6
XKITLINE00
62
7
0
LINE
10
418071.225
20
6498214.613
30
0.000
11
418071.250
21
6498214.612
31
0.000
8
0
6
XKITLINE00
62
7
0
LINE
10
418071.250
20
6498214.612
30
0.000
11
418071.274
21
6498214.611
31
0.000
8
0
6
XKITLINE00
62
7
0
LINE
10
418071.274
20
6498214.611
30
0.000
11
418071.299
21
6498214.608
31
0.000
8
0
6
XKITLINE00
62
7
0
LINE
10
418071.299
20
6498214.608
30
0.000
11
418071.323
21
6498214.605
31
0.000
8
0
6
XKITLINE00
62
7
0
LINE
10
418071.323
20
6498214.605
30
0.000
11
418071.347
21
6498214.602
31
0.000
8
0
6
XKITLINE00
62
7
0
LINE
10
418071.347
20
6498214.602
30
0.000
11
418071.371
21
6498214.598
31
0.000
8
0
6
XKITLINE00
62
7
0
LINE
10
418071.371
20
6498214.598
30
0.000
11
418071.395
21
6498214.593
31
0.000
8
0
6
XKITLINE00
62
7
0
LINE
10
418071.395
20
6498214.593
30
0.000
11
418071.419
21
6498214.588
31
0.000
8
0
6
XKITLINE00
62
7
0
LINE
10
418071.419
20
6498214.588
30
0.000
11
418071.443
21
6498214.582
31
0.000
8
0
6
XKITLINE00
62
7
0
LINE
10
418071.443
20
6498214.582
30
0.000
11
418071.467
21
6498214.576
31
0.000
8
0
6
XKITLINE00
62
7
0
LINE
10
418071.467
20
6498214.576
30
0.000
11
418071.491
21
6498214.569
31
0.000
8
0
6
XKITLINE00
62
7
0
LINE
10
418071.491
20
6498214.569
30
0.000
11
418071.514
21
6498214.561
31
0.000
8
0
6
XKITLINE00
62
7
0
LINE
10
418071.514
20
6498214.561
30
0.000
11
418071.537
21
6498214.553
31
0.000
8
0
6
XKITLINE00
62
7
0
LINE
10
418071.537
20
6498214.553
30
0.000
11
418071.560
21
6498214.544
31
0.000
8
0
6
XKITLINE00
62
7
0
LINE
10
418071.560
20
6498214.544
30
0.000
11
418071.583
21
6498214.535
31
0.000
8
0
6
XKITLINE00
62
7
0
LINE
10
418071.583
20
6498214.535
30
0.000
11
418071.605
21
6498214.525
31
0.000
8
0
6
XKITLINE00
62
7
0
LINE
10
418071.605
20
6498214.525
30
0.000
11
418071.627
21
6498214.515
31
0.000
8
0
6
XKITLINE00
62
7
0
LINE
10
418071.627
20
6498214.515
30
0.000
11
418071.649
21
6498214.504
31
0.000
8
0
6
XKITLINE00
62
7
0
LINE
10
418071.649
20
6498214.504
30
0.000
11
418071.671
21
6498214.492
31
0.000
8
0
6
XKITLINE00
62
7
0
LINE
10
418071.671
20
6498214.492
30
0.000
11
418071.693
21
6498214.480
31
0.000
8
0
6
XKITLINE00
62
7
0
LINE
10
418071.693
20
6498214.480
30
0.000
11
418071.714
21
6498214.468
31
0.000
8
0
6
XKITLINE00
62
7
0
LINE
10
418071.714
20
6498214.468
30
0.000
11
418071.734
21
6498214.455
31
0.000
8
0
6
XKITLINE00
62
7
0
LINE
10
418071.734
20
6498214.455
30
0.000
11
418071.755
21
6498214.441
31
0.000
8
0
6
XKITLINE00
62
7
0
LINE
10
418071.755
20
6498214.441
30
0.000
11
418071.775
21
6498214.427
31
0.000
8
0
6
XKITLINE00
62
7
0
LINE
10
418071.775
20
6498214.427
30
0.000
11
418071.795
21
6498214.413
31
0.000
8
0
6
XKITLINE00
62
7
0
LINE
10
418071.795
20
6498214.413
30
0.000
11
418071.814
21
6498214.398
31
0.000
8
0
6
XKITLINE00
62
7
0
LINE
10
418071.814
20
6498214.398
30
0.000
11
418071.833
21
6498214.382
31
0.000
8
0
6
XKITLINE00
62
7
0
LINE
10
418071.833
20
6498214.382
30
0.000
11
418071.852
21
6498214.367
31
0.000
8
0
6
XKITLINE00
62
7
0
LINE
10
418071.852
20
6498214.367
30
0.000
11
418071.870
21
6498214.350
31
0.000
8
0
6
XKITLINE00
62
7
0
LINE
10
418071.870
20
6498214.350
30
0.000
11
418071.888
21
6498214.333
31
0.000
8
0
6
XKITLINE00
62
7
0
LINE
10
418071.888
20
6498214.333
30
0.000
11
418071.906
21
6498214.316
31
0.000
8
0
6
XKITLINE00
62
7
0
LINE
10
418071.906
20
6498214.316
30
0.000
11
418071.923
21
6498214.298
31
0.000
8
0
6
XKITLINE00
62
7
0
LINE
10
418071.923
20
6498214.298
30
0.000
11
418071.939
21
6498214.280
31
0.000
8
0
6
XKITLINE00
62
7
0
LINE
10
418071.939
20
6498214.280
30
0.000
11
418071.955
21
6498214.262
31
0.000
8
0
6
XKITLINE00
62
7
0
LINE
10
418071.955
20
6498214.262
30
0.000
11
418071.971
21
6498214.243
31
0.000
8
0
6
XKITLINE00
62
7
0
LINE
10
418071.971
20
6498214.243
30
0.000
11
418071.986
21
6498214.224
31
0.000
8
0
6
XKITLINE00
62
7
0
LINE
10
418071.986
20
6498214.224
30
0.000
11
418072.001
21
6498214.204
31
0.000
8
0
6
XKITLINE00
62
7
0
LINE
10
418072.001
20
6498214.204
30
0.000
11
418072.015
21
6498214.184
31
0.000
8
0
6
XKITLINE00
62
7
0
LINE
10
418072.015
20
6498214.184
30
0.000
11
418072.029
21
6498214.164
31
0.000
8
0
6
XKITLINE00
62
7
0
LINE
10
418072.029
20
6498214.164
30
0.000
11
418072.042
21
6498214.143
31
0.000
8
0
6
XKITLINE00
62
7
0
LINE
10
418072.042
20
6498214.143
30
0.000
11
418072.055
21
6498214.122
31
0.000
8
0
6
XKITLINE00
62
7
0
LINE
10
418072.055
20
6498214.122
30
0.000
11
418072.067
21
6498214.101
31
0.000
8
0
6
XKITLINE00
62
7
0
LINE
10
418072.067
20
6498214.101
30
0.000
11
418072.079
21
6498214.079
31
0.000
8
0
6
XKITLINE00
62
7
0
LINE
10
418072.079
20
6498214.079
30
0.000
11
418072.090
21
6498214.057
31
0.000
8
0
6
XKITLINE00
62
7
0
LINE
10
418072.090
20
6498214.057
30
0.000
11
418072.101
21
6498214.035
31
0.000
8
0
6
XKITLINE00
62
7
0
LINE
10
418072.101
20
6498214.035
30
0.000
11
418072.111
21
6498214.013
31
0.000
8
0
6
XKITLINE00
62
7
0
LINE
10
418072.111
20
6498214.013
30
0.000
11
418072.120
21
6498213.990
31
0.000
8
0
6
XKITLINE00
62
7
0
LINE
10
418072.120
20
6498213.990
30
0.000
11
418072.129
21
6498213.967
31
0.000
8
0
6
XKITLINE00
62
7
0
LINE
10
418072.129
20
6498213.967
30
0.000
11
418072.138
21
6498213.944
31
0.000
8
0
6
XKITLINE00
62
7
0
LINE
10
418072.138
20
6498213.944
30
0.000
11
418072.145
21
6498213.921
31
0.000
8
0
6
XKITLINE00
62
7
0
LINE
10
418072.145
20
6498213.921
30
0.000
11
418072.153
21
6498213.898
31
0.000
8
0
6
XKITLINE00
62
7
0
LINE
10
418072.153
20
6498213.898
30
0.000
11
418072.159
21
6498213.874
31
0.000
8
0
6
XKITLINE00
62
7
0
LINE
10
418072.159
20
6498213.874
30
0.000
11
418072.165
21
6498213.850
31
0.000
8
0
6
XKITLINE00
62
7
0
LINE
10
418072.165
20
6498213.850
30
0.000
11
418072.171
21
6498213.826
31
0.000
8
0
6
XKITLINE00
62
7
0
LINE
10
418072.171
20
6498213.826
30
0.000
11
418072.176
21
6498213.802
31
0.000
8
0
6
XKITLINE00
62
7
0
LINE
10
418072.176
20
6498213.802
30
0.000
11
418072.180
21
6498213.778
31
0.000
8
0
6
XKITLINE00
62
7
0
LINE
10
418072.180
20
6498213.778
30
0.000
11
418072.184
21
6498213.754
31
0.000
8
0
6
XKITLINE00
62
7
0
LINE
10
418072.184
20
6498213.754
30
0.000
11
418072.187
21
6498213.729
31
0.000
8
0
6
XKITLINE00
62
7
0
LINE
10
418072.187
20
6498213.729
30
0.000
11
418072.190
21
6498213.705
31
0.000
8
0
6
XKITLINE00
62
7
0
LINE
10
418072.190
20
6498213.705
30
0.000
11
418072.191
21
6498213.681
31
0.000
8
0
6
XKITLINE00
62
7
0
LINE
10
418072.191
20
6498213.681
30
0.000
11
418072.193
21
6498213.656
31
0.000
8
0
6
XKITLINE00
62
7
0
LINE
10
418072.193
20
6498213.656
30
0.000
11
418072.194
21
6498213.631
31
0.000
8
0
6
XKITLINE00
62
7
0
LINE
10
418072.194
20
6498213.631
30
0.000
11
418072.194
21
6498213.607
31
0.000
8
0
6
XKITLINE00
62
7
0
LINE
10
418072.194
20
6498213.607
30
0.000
11
418072.193
21
6498213.582
31
0.000
8
0
6
XKITLINE00
62
7
0
LINE
10
418072.193
20
6498213.582
30
0.000
11
418072.192
21
6498213.558
31
0.000
8
0
6
XKITLINE00
62
7
0
LINE
10
418072.192
20
6498213.558
30
0.000
11
418072.190
21
6498213.533
31
0.000
8
0
6
XKITLINE00
62
7
0
LINE
10
418072.190
20
6498213.533
30
0.000
11
418072.188
21
6498213.509
31
0.000
8
0
6
XKITLINE00
62
7
0
LINE
10
418072.188
20
6498213.509
30
0.000
11
418072.185
21
6498213.485
31
0.000
8
0
6
XKITLINE00
62
7
0
LINE
10
418072.185
20
6498213.485
30
0.000
11
418072.182
21
6498213.460
31
0.000
8
0
6
XKITLINE00
62
7
0
LINE
10
418072.182
20
6498213.460
30
0.000
11
418072.178
21
6498213.436
31
0.000
8
0
6
XKITLINE00
62
7
0
LINE
10
418072.178
20
6498213.436
30
0.000
11
418072.173
21
6498213.412
31
0.000
8
0
6
XKITLINE00
62
7
0
LINE
10
418072.173
20
6498213.412
30
0.000
11
418072.168
21
6498213.388
31
0.000
8
0
6
XKITLINE00
62
7
0
LINE
10
418072.168
20
6498213.388
30
0.000
11
418072.162
21
6498213.364
31
0.000
8
0
6
XKITLINE00
62
7
0
LINE
10
418072.162
20
6498213.364
30
0.000
11
418072.156
21
6498213.340
31
0.000
8
0
6
XKITLINE00
62
7
0
LINE
10
418072.156
20
6498213.340
30
0.000
11
418072.149
21
6498213.317
31
0.000
8
0
6
XKITLINE00
62
7
0
LINE
10
418072.149
20
6498213.317
30
0.000
11
418072.141
21
6498213.294
31
0.000
8
0
6
XKITLINE00
62
7
0
LINE
10
418072.141
20
6498213.294
30
0.000
11
418072.133
21
6498213.270
31
0.000
8
0
6
XKITLINE00
62
7
0
LINE
10
418072.133
20
6498213.270
30
0.000
11
418072.124
21
6498213.248
31
0.000
8
0
6
XKITLINE00
62
7
0
LINE
10
418072.124
20
6498213.248
30
0.000
11
418072.115
21
6498213.225
31
0.000
8
0
6
XKITLINE00
62
7
0
LINE
10
418072.115
20
6498213.225
30
0.000
11
418072.105
21
6498213.202
31
0.000
8
0
6
XKITLINE00
62
7
0
LINE
10
418072.105
20
6498213.202
30
0.000
11
418072.095
21
6498213.180
31
0.000
8
0
6
XKITLINE00
62
7
0
LINE
10
418072.095
20
6498213.180
30
0.000
11
418072.084
21
6498213.158
31
0.000
8
0
6
XKITLINE00
62
7
0
LINE
10
418072.084
20
6498213.158
30
0.000
11
418072.072
21
6498213.136
31
0.000
8
0
6
XKITLINE00
62
7
0
LINE
10
418072.072
20
6498213.136
30
0.000
11
418072.060
21
6498213.115
31
0.000
8
0
6
XKITLINE00
62
7
0
LINE
10
418072.060
20
6498213.115
30
0.000
11
418072.048
21
6498213.094
31
0.000
8
0
6
XKITLINE00
62
7
0
LINE
10
418072.048
20
6498213.094
30
0.000
11
418072.035
21
6498213.073
31
0.000
8
0
6
XKITLINE00
62
7
0
LINE
10
418072.035
20
6498213.073
30
0.000
11
418072.021
21
6498213.053
31
0.000
8
0
6
XKITLINE00
62
7
0
LINE
10
418072.021
20
6498213.053
30
0.000
11
418072.007
21
6498213.032
31
0.000
8
0
6
XKITLINE00
62
7
0
LINE
10
418072.007
20
6498213.032
30
0.000
11
418071.993
21
6498213.013
31
0.000
8
0
6
XKITLINE00
62
7
0
LINE
10
418071.993
20
6498213.013
30
0.000
11
418071.978
21
6498212.993
31
0.000
8
0
6
XKITLINE00
62
7
0
LINE
10
418071.978
20
6498212.993
30
0.000
11
418071.962
21
6498212.974
31
0.000
8
0
6
XKITLINE00
62
7
0
LINE
10
418071.962
20
6498212.974
30
0.000
11
418071.946
21
6498212.955
31
0.000
8
0
6
XKITLINE00
62
7
0
LINE
10
418071.946
20
6498212.955
30
0.000
11
418071.930
21
6498212.937
31
0.000
8
0
6
XKITLINE00
62
7
0
LINE
10
418071.930
20
6498212.937
30
0.000
11
418071.913
21
6498212.919
31
0.000
8
0
6
XKITLINE00
62
7
0
LINE
10
418071.913
20
6498212.919
30
0.000
11
418071.896
21
6498212.902
31
0.000
8
0
6
XKITLINE00
62
7
0
LINE
10
418071.896
20
6498212.902
30
0.000
11
418071.878
21
6498212.885
31
0.000
8
0
6
XKITLINE00
62
7
0
LINE
10
418071.878
20
6498212.885
30
0.000
11
418071.860
21
6498212.868
31
0.000
8
0
6
XKITLINE00
62
7
0
LINE
10
418071.860
20
6498212.868
30
0.000
11
418071.842
21
6498212.852
31
0.000
8
0
6
XKITLINE00
62
7
0
LINE
10
418071.842
20
6498212.852
30
0.000
11
418071.823
21
6498212.836
31
0.000
8
0
6
XKITLINE00
62
7
0
LINE
10
418071.823
20
6498212.836
30
0.000
11
418071.804
21
6498212.821
31
0.000
8
0
6
XKITLINE00
62
7
0
LINE
10
418071.804
20
6498212.821
30
0.000
11
418071.784
21
6498212.807
31
0.000
8
0
6
XKITLINE00
62
7
0
LINE
10
418071.784
20
6498212.807
30
0.000
11
418071.764
21
6498212.792
31
0.000
8
0
6
XKITLINE00
62
7
0
LINE
10
418071.764
20
6498212.792
30
0.000
11
418071.744
21
6498212.779
31
0.000
8
0
6
XKITLINE00
62
7
0
LINE
10
418071.744
20
6498212.779
30
0.000
11
418071.723
21
6498212.765
31
0.000
8
0
6
XKITLINE00
62
7
0
LINE
10
418071.723
20
6498212.765
30
0.000
11
418071.702
21
6498212.753
31
0.000
8
0
6
XKITLINE00
62
7
0
LINE
10
418071.702
20
6498212.753
30
0.000
11
418071.681
21
6498212.740
31
0.000
8
0
6
XKITLINE00
62
7
0
LINE
10
418071.681
20
6498212.740
30
0.000
11
418071.659
21
6498212.729
31
0.000
8
0
6
XKITLINE00
62
7
0
LINE
10
418071.659
20
6498212.729
30
0.000
11
418071.637
21
6498212.718
31
0.000
8
0
6
XKITLINE00
62
7
0
LINE
10
418071.637
20
6498212.718
30
0.000
11
418071.615
21
6498212.707
31
0.000
8
0
6
XKITLINE00
62
7
0
LINE
10
418071.615
20
6498212.707
30
0.000
11
418071.593
21
6498212.697
31
0.000
8
0
6
XKITLINE00
62
7
0
LINE
10
418071.593
20
6498212.697
30
0.000
11
418071.570
21
6498212.687
31
0.000
8
0
6
XKITLINE00
62
7
0
LINE
10
418071.570
20
6498212.687
30
0.000
11
418071.547
21
6498212.678
31
0.000
8
0
6
XKITLINE00
62
7
0
LINE
10
418071.547
20
6498212.678
30
0.000
11
418071.524
21
6498212.670
31
0.000
8
0
6
XKITLINE00
62
7
0
LINE
10
418071.524
20
6498212.670
30
0.000
11
418071.501
21
6498212.662
31
0.000
8
0
6
XKITLINE00
62
7
0
LINE
10
418071.501
20
6498212.662
30
0.000
11
418071.477
21
6498212.655
31
0.000
8
0
6
XKITLINE00
62
7
0
LINE
10
418071.477
20
6498212.655
30
0.000
11
418071.454
21
6498212.648
31
0.000
8
0
6
XKITLINE00
62
7
0
LINE
10
418071.454
20
6498212.648
30
0.000
11
418071.430
21
6498212.642
31
0.000
8
0
6
XKITLINE00
62
7
0
LINE
10
418071.430
20
6498212.642
30
0.000
11
418071.406
21
6498212.637
31
0.000
8
0
6
XKITLINE00
62
7
0
LINE
10
418071.406
20
6498212.637
30
0.000
11
418071.382
21
6498212.632
31
0.000
8
0
6
XKITLINE00
62
7
0
LINE
10
418071.382
20
6498212.632
30
0.000
11
418071.358
21
6498212.627
31
0.000
8
0
6
XKITLINE00
62
7
0
LINE
10
418071.358
20
6498212.627
30
0.000
11
418071.334
21
6498212.624
31
0.000
8
0
6
XKITLINE00
62
7
0
LINE
10
418071.334
20
6498212.624
30
0.000
11
418071.309
21
6498212.620
31
0.000
8
0
6
XKITLINE00
62
7
0
LINE
10
418071.309
20
6498212.620
30
0.000
11
418071.285
21
6498212.618
31
0.000
8
0
6
XKITLINE00
62
7
0
LINE
10
418071.285
20
6498212.618
30
0.000
11
418071.260
21
6498212.616
31
0.000
8
0
6
XKITLINE00
62
7
0
LINE
10
418071.260
20
6498212.616
30
0.000
11
418071.236
21
6498212.615
31
0.000
8
0
6
XKITLINE00
62
7
0
LINE
10
418071.236
20
6498212.615
30
0.000
11
418071.211
21
6498212.614
31
0.000
8
0
6
XKITLINE00
62
7
0
LINE
10
418071.211
20
6498212.614
30
0.000
11
418071.187
21
6498212.614
31
0.000
8
0
6
XKITLINE00
62
7
0
LINE
10
418071.187
20
6498212.614
30
0.000
11
418071.162
21
6498212.614
31
0.000
8
0
6
XKITLINE00
62
7
0
LINE
10
418071.162
20
6498212.614
30
0.000
11
418071.138
21
6498212.615
31
0.000
8
0
6
XKITLINE00
62
7
0
LINE
10
418071.138
20
6498212.615
30
0.000
11
418071.113
21
6498212.617
31
0.000
8
0
6
XKITLINE00
62
7
0
LINE
10
418071.113
20
6498212.617
30
0.000
11
418071.089
21
6498212.619
31
0.000
8
0
6
XKITLINE00
62
7
0
LINE
10
418071.089
20
6498212.619
30
0.000
11
418071.065
21
6498212.622
31
0.000
8
0
6
XKITLINE00
62
7
0
LINE
10
418071.065
20
6498212.622
30
0.000
11
418071.040
21
6498212.626
31
0.000
8
0
6
XKITLINE00
62
7
0
LINE
10
418071.040
20
6498212.626
30
0.000
11
418071.016
21
6498212.630
31
0.000
8
0
6
XKITLINE00
62
7
0
LINE
10
418071.016
20
6498212.630
30
0.000
11
418070.992
21
6498212.634
31
0.000
8
0
6
XKITLINE00
62
7
0
LINE
10
418070.992
20
6498212.634
30
0.000
11
418070.968
21
6498212.640
31
0.000
8
0
6
XKITLINE00
62
7
0
LINE
10
418070.968
20
6498212.640
30
0.000
11
418070.944
21
6498212.645
31
0.000
8
0
6
XKITLINE00
62
7
0
LINE
10
418070.944
20
6498212.645
30
0.000
11
418070.920
21
6498212.652
31
0.000
8
0
6
XKITLINE00
62
7
0
LINE
10
418070.920
20
6498212.652
30
0.000
11
418070.897
21
6498212.659
31
0.000
8
0
6
XKITLINE00
62
7
0
LINE
10
418070.897
20
6498212.659
30
0.000
11
418070.874
21
6498212.666
31
0.000
8
0
6
XKITLINE00
62
7
0
LINE
10
418070.874
20
6498212.666
30
0.000
11
418070.850
21
6498212.675
31
0.000
8
0
6
XKITLINE00
62
7
0
LINE
10
418070.850
20
6498212.675
30
0.000
11
418070.827
21
6498212.683
31
0.000
8
0
6
XKITLINE00
62
7
0
LINE
10
418070.827
20
6498212.683
30
0.000
11
418070.805
21
6498212.693
31
0.000
8
0
6
XKITLINE00
62
7
0
LINE
10
418070.805
20
6498212.693
30
0.000
11
418070.782
21
6498212.702
31
0.000
8
0
6
XKITLINE00
62
7
0
LINE
10
418070.782
20
6498212.702
30
0.000
11
418070.760
21
6498212.713
31
0.000
8
0
6
XKITLINE00
62
7
0
LINE
10
418070.760
20
6498212.713
30
0.000
11
418070.738
21
6498212.724
31
0.000
8
0
6
XKITLINE00
62
7
0
LINE
10
418070.738
20
6498212.724
30
0.000
11
418070.716
21
6498212.735
31
0.000
8
0
6
XKITLINE00
62
7
0
LINE
10
418070.716
20
6498212.735
30
0.000
11
418070.695
21
6498212.747
31
0.000
8
0
6
XKITLINE00
62
7
0
LINE
10
418070.695
20
6498212.747
30
0.000
11
418070.674
21
6498212.760
31
0.000
8
0
6
XKITLINE00
62
7
0
LINE
10
418070.674
20
6498212.760
30
0.000
11
418070.653
21
6498212.773
31
0.000
8
0
6
XKITLINE00
62
7
0
LINE
10
418070.653
20
6498212.773
30
0.000
11
418070.632
21
6498212.786
31
0.000
8
0
6
XKITLINE00
62
7
0
LINE
10
418070.632
20
6498212.786
30
0.000
11
418070.612
21
6498212.800
31
0.000
8
0
6
XKITLINE00
62
7
0
LINE
10
418070.612
20
6498212.800
30
0.000
11
418070.593
21
6498212.815
31
0.000
8
0
6
XKITLINE00
62
7
0
LINE
10
418070.593
20
6498212.815
30
0.000
11
418070.573
21
6498212.830
31
0.000
8
0
6
XKITLINE00
62
7
0
LINE
10
418070.573
20
6498212.830
30
0.000
11
418070.554
21
6498212.845
31
0.000
8
0
6
XKITLINE00
62
7
0
LINE
10
418070.554
20
6498212.845
30
0.000
11
418070.535
21
6498212.861
31
0.000
8
0
6
XKITLINE00
62
7
0
LINE
10
418070.535
20
6498212.861
30
0.000
11
418070.517
21
6498212.877
31
0.000
8
0
6
XKITLINE00
62
7
0
LINE
10
418070.517
20
6498212.877
30
0.000
11
418070.499
21
6498212.894
31
0.000
8
0
6
XKITLINE00
62
7
0
LINE
10
418070.499
20
6498212.894
30
0.000
11
418070.482
21
6498212.912
31
0.000
8
0
6
XKITLINE00
62
7
0
LINE
10
418070.482
20
6498212.912
30
0.000
11
418070.465
21
6498212.929
31
0.000
8
0
6
XKITLINE00
62
7
0
LINE
10
418070.465
20
6498212.929
30
0.000
11
418070.448
21
6498212.947
31
0.000
8
0
6
XKITLINE00
62
7
0
LINE
10
418070.448
20
6498212.947
30
0.000
11
418070.432
21
6498212.966
31
0.000
8
0
6
XKITLINE00
62
7
0
LINE
10
418070.432
20
6498212.966
30
0.000
11
418070.416
21
6498212.985
31
0.000
8
0
6
XKITLINE00
62
7
0
LINE
10
418070.416
20
6498212.985
30
0.000
11
418070.401
21
6498213.004
31
0.000
8
0
6
XKITLINE00
62
7
0
LINE
10
418070.401
20
6498213.004
30
0.000
11
418070.386
21
6498213.024
31
0.000
8
0
6
XKITLINE00
62
7
0
LINE
10
418070.386
20
6498213.024
30
0.000
11
418070.372
21
6498213.044
31
0.000
8
0
6
XKITLINE00
62
7
0
LINE
10
418070.372
20
6498213.044
30
0.000
11
418070.358
21
6498213.064
31
0.000
8
0
6
XKITLINE00
62
7
0
LINE
10
418070.358
20
6498213.064
30
0.000
11
418070.345
21
6498213.085
31
0.000
8
0
6
XKITLINE00
62
7
0
LINE
10
418070.345
20
6498213.085
30
0.000
11
418070.332
21
6498213.106
31
0.000
8
0
6
XKITLINE00
62
7
0
LINE
10
418070.332
20
6498213.106
30
0.000
11
418070.320
21
6498213.127
31
0.000
8
0
6
XKITLINE00
62
7
0
LINE
10
418070.320
20
6498213.127
30
0.000
11
418070.309
21
6498213.148
31
0.000
8
0
6
XKITLINE00
62
7
0
LINE
10
418070.309
20
6498213.148
30
0.000
11
418070.297
21
6498213.170
31
0.000
8
0
6
XKITLINE00
62
7
0
LINE
10
418070.297
20
6498213.170
30
0.000
11
418070.287
21
6498213.192
31
0.000
8
0
6
XKITLINE00
62
7
0
LINE
10
418070.287
20
6498213.192
30
0.000
11
418070.277
21
6498213.215
31
0.000
8
0
6
XKITLINE00
62
7
0
LINE
10
418070.277
20
6498213.215
30
0.000
11
418070.267
21
6498213.237
31
0.000
8
0
6
XKITLINE00
62
7
0
LINE
10
418070.267
20
6498213.237
30
0.000
11
418070.258
21
6498213.260
31
0.000
8
0
6
XKITLINE00
62
7
0
LINE
10
418070.258
20
6498213.260
30
0.000
11
418070.250
21
6498213.283
31
0.000
8
0
6
XKITLINE00
62
7
0
LINE
10
418070.250
20
6498213.283
30
0.000
11
418070.242
21
6498213.307
31
0.000
8
0
6
XKITLINE00
62
7
0
LINE
10
418070.242
20
6498213.307
30
0.000
11
418070.235
21
6498213.330
31
0.000
8
0
6
XKITLINE00
62
7
0
LINE
10
418070.235
20
6498213.330
30
0.000
11
418070.228
21
6498213.354
31
0.000
8
0
6
XKITLINE00
62
7
0
LINE
10
418070.228
20
6498213.354
30
0.000
11
418070.222
21
6498213.377
31
0.000
8
0
6
XKITLINE00
62
7
0
LINE
10
418070.222
20
6498213.377
30
0.000
11
418070.217
21
6498213.401
31
0.000
8
0
6
XKITLINE00
62
7
0
LINE
10
418070.217
20
6498213.401
30
0.000
11
418070.212
21
6498213.425
31
0.000
8
0
6
XKITLINE00
62
7
0
LINE
10
418070.212
20
6498213.425
30
0.000
11
418070.207
21
6498213.450
31
0.000
8
0
6
XKITLINE00
62
7
0
LINE
10
418070.207
20
6498213.450
30
0.000
11
418070.204
21
6498213.474
31
0.000
8
0
6
XKITLINE00
62
7
0
LINE
10
418070.204
20
6498213.474
30
0.000
11
418070.200
21
6498213.498
31
0.000
8
0
6
XKITLINE00
62
7
0
LINE
10
418070.200
20
6498213.498
30
0.000
11
418070.198
21
6498213.523
31
0.000
8
0
6
XKITLINE00
62
7
0
LINE
10
418070.198
20
6498213.523
30
0.000
11
418070.196
21
6498213.547
31
0.000
8
0
6
XKITLINE00
62
7
0
LINE
10
418070.196
20
6498213.547
30
0.000
11
418070.195
21
6498213.572
31
0.000
8
0
6
XKITLINE00
62
7
0
LINE
10
418070.195
20
6498213.572
30
0.000
11
418070.194
21
6498213.596
31
0.000
8
0
6
XKITLINE00
62
7
0
LINE
10
418070.194
20
6498213.596
30
0.000
11
418070.194
21
6498213.621
31
0.000
8
0
6
XKITLINE00
62
7
0
LINE
10
418070.194
20
6498213.621
30
0.000
11
418070.194
21
6498213.645
31
0.000
8
0
6
XKITLINE00
62
7
0
LINE
10
418070.194
20
6498213.645
30
0.000
11
418070.195
21
6498213.670
31
0.000
8
0
6
XKITLINE00
62
7
0
LINE
10
418070.195
20
6498213.670
30
0.000
11
418070.197
21
6498213.694
31
0.000
8
0
6
XKITLINE00
62
7
0
LINE
10
418070.197
20
6498213.694
30
0.000
11
418070.199
21
6498213.719
31
0.000
8
0
6
XKITLINE00
62
7
0
LINE
10
418070.199
20
6498213.719
30
0.000
11
418070.202
21
6498213.743
31
0.000
8
0
6
XKITLINE00
62
7
0
LINE
10
418070.202
20
6498213.743
30
0.000
11
418070.206
21
6498213.767
31
0.000
8
0
6
XKITLINE00
62
7
0
LINE
10
418070.206
20
6498213.767
30
0.000
11
418070.210
21
6498213.791
31
0.000
8
0
6
XKITLINE00
62
7
0
LINE
10
418070.210
20
6498213.791
30
0.000
11
418070.214
21
6498213.816
31
0.000
8
0
6
XKITLINE00
62
7
0
LINE
10
418070.214
20
6498213.816
30
0.000
11
418070.220
21
6498213.840
31
0.000
8
0
6
XKITLINE00
62
7
0
LINE
10
418070.220
20
6498213.840
30
0.000
11
418070.225
21
6498213.863
31
0.000
8
0
6
XKITLINE00
62
7
0
LINE
10
418070.225
20
6498213.863
30
0.000
11
418070.232
21
6498213.887
31
0.000
8
0
6
XKITLINE00
62
7
0
LINE
10
418070.232
20
6498213.887
30
0.000
11
418070.239
21
6498213.911
31
0.000
8
0
6
XKITLINE00
62
7
0
LINE
10
418070.239
20
6498213.911
30
0.000
11
418070.246
21
6498213.934
31
0.000
8
0
6
XKITLINE00
62
7
0
LINE
10
418070.246
20
6498213.934
30
0.000
11
418070.254
21
6498213.957
31
0.000
8
0
6
XKITLINE00
62
7
0
LINE
10
418070.254
20
6498213.957
30
0.000
11
418070.263
21
6498213.980
31
0.000
8
0
6
XKITLINE00
62
7
0
LINE
10
418070.263
20
6498213.980
30
0.000
11
418070.272
21
6498214.003
31
0.000
8
0
6
XKITLINE00
62
7
0
LINE
10
418070.272
20
6498214.003
30
0.000
11
418070.272
21
6498214.003
31
0.000
8
0
6
XKITLINE00
62
7
0
LINE
10
418070.827
20
6498212.683
30
0.000
11
418068.264
21
6498206.170
31
0.000
8
0
6
XKITLINE02
62
7
0
LINE
10
418077.289
20
6498206.812
30
0.000
11
418077.314
21
6498206.815
31
0.000
8
0
6
XKITLINE00
62
7
0
LINE
10
418077.314
20
6498206.815
30
0.000
11
418077.338
21
6498206.817
31
0.000
8
0
6
XKITLINE00
62
7
0
LINE
10
418077.338
20
6498206.817
30
0.000
11
418077.363
21
6498206.819
31
0.000
8
0
6
XKITLINE00
62
7
0
LINE
10
418077.363
20
6498206.819
30
0.000
11
418077.387
21
6498206.820
31
0.000
8
0
6
XKITLINE00
62
7
0
LINE
10
418077.387
20
6498206.820
30
0.000
11
418077.412
21
6498206.820
31
0.000
8
0
6
XKITLINE00
62
7
0
LINE
10
418077.412
20
6498206.820
30
0.000
11
418077.436
21
6498206.820
31
0.000
8
0
6
XKITLINE00
62
7
0
LINE
10
418077.436
20
6498206.820
30
0.000
11
418077.461
21
6498206.819
31
0.000
8
0
6
XKITLINE00
62
7
0
LINE
10
418077.461
20
6498206.819
30
0.000
11
418077.485
21
6498206.818
31
0.000
8
0
6
XKITLINE00
62
7
0
LINE
10
418077.485
20
6498206.818
30
0.000
11
418077.510
21
6498206.816
31
0.000
8
0
6
XKITLINE00
62
7
0
LINE
10
418077.510
20
6498206.816
30
0.000
11
418077.534
21
6498206.813
31
0.000
8
0
6
XKITLINE00
62
7
0
LINE
10
418077.534
20
6498206.813
30
0.000
11
418077.559
21
6498206.810
31
0.000
8
0
6
XKITLINE00
62
7
0
LINE
10
418077.559
20
6498206.810
30
0.000
11
418077.583
21
6498206.806
31
0.000
8
0
6
XKITLINE00
62
7
0
LINE
10
418077.583
20
6498206.806
30
0.000
11
418077.607
21
6498206.802
31
0.000
8
0
6
XKITLINE00
62
7
0
LINE
10
418077.607
20
6498206.802
30
0.000
11
418077.631
21
6498206.797
31
0.000
8
0
6
XKITLINE00
62
7
0
LINE
10
418077.631
20
6498206.797
30
0.000
11
418077.655
21
6498206.792
31
0.000
8
0
6
XKITLINE00
62
7
0
LINE
10
418077.655
20
6498206.792
30
0.000
11
418077.679
21
6498206.785
31
0.000
8
0
6
XKITLINE00
62
7
0
LINE
10
418077.679
20
6498206.785
30
0.000
11
418077.702
21
6498206.779
31
0.000
8
0
6
XKITLINE00
62
7
0
LINE
10
418077.702
20
6498206.779
30
0.000
11
418077.726
21
6498206.771
31
0.000
8
0
6
XKITLINE00
62
7
0
LINE
10
418077.726
20
6498206.771
30
0.000
11
418077.749
21
6498206.763
31
0.000
8
0
6
XKITLINE00
62
7
0
LINE
10
418077.749
20
6498206.763
30
0.000
11
418077.772
21
6498206.755
31
0.000
8
0
6
XKITLINE00
62
7
0
LINE
10
418077.772
20
6498206.755
30
0.000
11
418077.795
21
6498206.746
31
0.000
8
0
6
XKITLINE00
62
7
0
LINE
10
418077.795
20
6498206.746
30
0.000
11
418077.817
21
6498206.736
31
0.000
8
0
6
XKITLINE00
62
7
0
LINE
10
418077.817
20
6498206.736
30
0.000
11
418077.840
21
6498206.726
31
0.000
8
0
6
XKITLINE00
62
7
0
LINE
10
418077.840
20
6498206.726
30
0.000
11
418077.862
21
6498206.716
31
0.000
8
0
6
XKITLINE00
62
7
0
LINE
10
418077.862
20
6498206.716
30
0.000
11
418077.884
21
6498206.704
31
0.000
8
0
6
XKITLINE00
62
7
0
LINE
10
418077.884
20
6498206.704
30
0.000
11
418077.905
21
6498206.693
31
0.000
8
0
6
XKITLINE00
62
7
0
LINE
10
418077.905
20
6498206.693
30
0.000
11
418077.927
21
6498206.680
31
0.000
8
0
6
XKITLINE00
62
7
0
LINE
10
418077.927
20
6498206.680
30
0.000
11
418077.947
21
6498206.668
31
0.000
8
0
6
XKITLINE00
62
7
0
LINE
10
418077.947
20
6498206.668
30
0.000
11
418077.968
21
6498206.654
31
0.000
8
0
6
XKITLINE00
62
7
0
LINE
10
418077.968
20
6498206.654
30
0.000
11
418077.988
21
6498206.641
31
0.000
8
0
6
XKITLINE00
62
7
0
LINE
10
418077.988
20
6498206.641
30
0.000
11
418078.008
21
6498206.626
31
0.000
8
0
6
XKITLINE00
62
7
0
LINE
10
418078.008
20
6498206.626
30
0.000
11
418078.028
21
6498206.612
31
0.000
8
0
6
XKITLINE00
62
7
0
LINE
10
418078.028
20
6498206.612
30
0.000
11
418078.047
21
6498206.596
31
0.000
8
0
6
XKITLINE00
62
7
0
LINE
10
418078.047
20
6498206.596
30
0.000
11
418078.066
21
6498206.581
31
0.000
8
0
6
XKITLINE00
62
7
0
LINE
10
418078.066
20
6498206.581
30
0.000
11
418078.085
21
6498206.564
31
0.000
8
0
6
XKITLINE00
62
7
0
LINE
10
418078.085
20
6498206.564
30
0.000
11
418078.103
21
6498206.548
31
0.000
8
0
6
XKITLINE00
62
7
0
LINE
10
418078.103
20
6498206.548
30
0.000
11
418078.120
21
6498206.531
31
0.000
8
0
6
XKITLINE00
62
7
0
LINE
10
418078.120
20
6498206.531
30
0.000
11
418078.137
21
6498206.513
31
0.000
8
0
6
XKITLINE00
62
7
0
LINE
10
418078.137
20
6498206.513
30
0.000
11
418078.154
21
6498206.495
31
0.000
8
0
6
XKITLINE00
62
7
0
LINE
10
418078.154
20
6498206.495
30
0.000
11
418078.171
21
6498206.477
31
0.000
8
0
6
XKITLINE00
62
7
0
LINE
10
418078.171
20
6498206.477
30
0.000
11
418078.186
21
6498206.458
31
0.000
8
0
6
XKITLINE00
62
7
0
LINE
10
418078.186
20
6498206.458
30
0.000
11
418078.202
21
6498206.439
31
0.000
8
0
6
XKITLINE00
62
7
0
LINE
10
418078.202
20
6498206.439
30
0.000
11
418078.217
21
6498206.420
31
0.000
8
0
6
XKITLINE00
62
7
0
LINE
10
418078.217
20
6498206.420
30
0.000
11
418078.231
21
6498206.400
31
0.000
8
0
6
XKITLINE00
62
7
0
LINE
10
418078.231
20
6498206.400
30
0.000
11
418078.245
21
6498206.380
31
0.000
8
0
6
XKITLINE00
62
7
0
LINE
10
418078.245
20
6498206.380
30
0.000
11
418078.259
21
6498206.359
31
0.000
8
0
6
XKITLINE00
62
7
0
LINE
10
418078.259
20
6498206.359
30
0.000
11
418078.272
21
6498206.338
31
0.000
8
0
6
XKITLINE00
62
7
0
LINE
10
418078.272
20
6498206.338
30
0.000
11
418078.284
21
6498206.317
31
0.000
8
0
6
XKITLINE00
62
7
0
LINE
10
418078.284
20
6498206.317
30
0.000
11
418078.296
21
6498206.296
31
0.000
8
0
6
XKITLINE00
62
7
0
LINE
10
418078.296
20
6498206.296
30
0.000
11
418078.307
21
6498206.274
31
0.000
8
0
6
XKITLINE00
62
7
0
LINE
10
418078.307
20
6498206.274
30
0.000
11
418078.318
21
6498206.252
31
0.000
8
0
6
XKITLINE00
62
7
0
LINE
10
418078.318
20
6498206.252
30
0.000
11
418078.329
21
6498206.230
31
0.000
8
0
6
XKITLINE00
62
7
0
LINE
10
418078.329
20
6498206.230
30
0.000
11
418078.338
21
6498206.207
31
0.000
8
0
6
XKITLINE00
62
7
0
LINE
10
418078.338
20
6498206.207
30
0.000
11
418078.348
21
6498206.185
31
0.000
8
0
6
XKITLINE00
62
7
0
LINE
10
418078.348
20
6498206.185
30
0.000
11
418078.356
21
6498206.162
31
0.000
8
0
6
XKITLINE00
62
7
0
LINE
10
418078.356
20
6498206.162
30
0.000
11
418078.364
21
6498206.138
31
0.000
8
0
6
XKITLINE00
62
7
0
LINE
10
418078.364
20
6498206.138
30
0.000
11
418078.372
21
6498206.115
31
0.000
8
0
6
XKITLINE00
62
7
0
LINE
10
418078.372
20
6498206.115
30
0.000
11
418078.379
21
6498206.091
31
0.000
8
0
6
XKITLINE00
62
7
0
LINE
10
418078.379
20
6498206.091
30
0.000
11
418078.385
21
6498206.068
31
0.000
8
0
6
XKITLINE00
62
7
0
LINE
10
418078.385
20
6498206.068
30
0.000
11
418078.391
21
6498206.044
31
0.000
8
0
6
XKITLINE00
62
7
0
LINE
10
418078.391
20
6498206.044
30
0.000
11
418078.396
21
6498206.020
31
0.000
8
0
6
XKITLINE00
62
7
0
LINE
10
418078.396
20
6498206.020
30
0.000
11
418078.401
21
6498205.996
31
0.000
8
0
6
XKITLINE00
62
7
0
LINE
10
418078.401
20
6498205.996
30
0.000
11
418078.405
21
6498205.972
31
0.000
8
0
6
XKITLINE00
62
7
0
LINE
10
418078.405
20
6498205.972
30
0.000
11
418078.408
21
6498205.947
31
0.000
8
0
6
XKITLINE00
62
7
0
LINE
10
418078.408
20
6498205.947
30
0.000
11
418078.411
21
6498205.923
31
0.000
8
0
6
XKITLINE00
62
7
0
LINE
10
418078.411
20
6498205.923
30
0.000
11
418078.413
21
6498205.898
31
0.000
8
0
6
XKITLINE00
62
7
0
LINE
10
418078.413
20
6498205.898
30
0.000
11
418078.415
21
6498205.874
31
0.000
8
0
6
XKITLINE00
62
7
0
LINE
10
418078.415
20
6498205.874
30
0.000
11
418078.416
21
6498205.849
31
0.000
8
0
6
XKITLINE00
62
7
0
LINE
10
418078.416
20
6498205.849
30
0.000
11
418078.416
21
6498205.825
31
0.000
8
0
6
XKITLINE00
62
7
0
LINE
10
418078.416
20
6498205.825
30
0.000
11
418078.416
21
6498205.800
31
0.000
8
0
6
XKITLINE00
62
7
0
LINE
10
418078.416
20
6498205.800
30
0.000
11
418078.415
21
6498205.776
31
0.000
8
0
6
XKITLINE00
62
7
0
LINE
10
418078.415
20
6498205.776
30
0.000
11
418078.414
21
6498205.751
31
0.000
8
0
6
XKITLINE00
62
7
0
LINE
10
418078.414
20
6498205.751
30
0.000
11
418078.412
21
6498205.727
31
0.000
8
0
6
XKITLINE00
62
7
0
LINE
10
418078.412
20
6498205.727
30
0.000
11
418078.409
21
6498205.702
31
0.000
8
0
6
XKITLINE00
62
7
0
LINE
10
418078.409
20
6498205.702
30
0.000
11
418078.406
21
6498205.678
31
0.000
8
0
6
XKITLINE00
62
7
0
LINE
10
418078.406
20
6498205.678
30
0.000
11
418078.402
21
6498205.654
31
0.000
8
0
6
XKITLINE00
62
7
0
LINE
10
418078.402
20
6498205.654
30
0.000
11
418078.398
21
6498205.630
31
0.000
8
0
6
XKITLINE00
62
7
0
LINE
10
418078.398
20
6498205.630
30
0.000
11
418078.393
21
6498205.606
31
0.000
8
0
6
XKITLINE00
62
7
0
LINE
10
418078.393
20
6498205.606
30
0.000
11
418078.387
21
6498205.582
31
0.000
8
0
6
XKITLINE00
62
7
0
LINE
10
418078.387
20
6498205.582
30
0.000
11
418078.381
21
6498205.558
31
0.000
8
0
6
XKITLINE00
62
7
0
LINE
10
418078.381
20
6498205.558
30
0.000
11
418078.375
21
6498205.534
31
0.000
8
0
6
XKITLINE00
62
7
0
LINE
10
418078.375
20
6498205.534
30
0.000
11
418078.367
21
6498205.511
31
0.000
8
0
6
XKITLINE00
62
7
0
LINE
10
418078.367
20
6498205.511
30
0.000
11
418078.359
21
6498205.488
31
0.000
8
0
6
XKITLINE00
62
7
0
LINE
10
418078.359
20
6498205.488
30
0.000
11
418078.351
21
6498205.465
31
0.000
8
0
6
XKITLINE00
62
7
0
LINE
10
418078.351
20
6498205.465
30
0.000
11
418078.342
21
6498205.442
31
0.000
8
0
6
XKITLINE00
62
7
0
LINE
10
418078.342
20
6498205.442
30
0.000
11
418078.332
21
6498205.419
31
0.000
8
0
6
XKITLINE00
62
7
0
LINE
10
418078.332
20
6498205.419
30
0.000
11
418078.322
21
6498205.397
31
0.000
8
0
6
XKITLINE00
62
7
0
LINE
10
418078.322
20
6498205.397
30
0.000
11
418078.312
21
6498205.375
31
0.000
8
0
6
XKITLINE00
62
7
0
LINE
10
418078.312
20
6498205.375
30
0.000
11
418078.300
21
6498205.353
31
0.000
8
0
6
XKITLINE00
62
7
0
LINE
10
418078.300
20
6498205.353
30
0.000
11
418078.289
21
6498205.331
31
0.000
8
0
6
XKITLINE00
62
7
0
LINE
10
418078.289
20
6498205.331
30
0.000
11
418078.276
21
6498205.310
31
0.000
8
0
6
XKITLINE00
62
7
0
LINE
10
418078.276
20
6498205.310
30
0.000
11
418078.264
21
6498205.289
31
0.000
8
0
6
XKITLINE00
62
7
0
LINE
10
418078.264
20
6498205.289
30
0.000
11
418078.250
21
6498205.269
31
0.000
8
0
6
XKITLINE00
62
7
0
LINE
10
418078.250
20
6498205.269
30
0.000
11
418078.236
21
6498205.248
31
0.000
8
0
6
XKITLINE00
62
7
0
LINE
10
418078.236
20
6498205.248
30
0.000
11
418078.222
21
6498205.228
31
0.000
8
0
6
XKITLINE00
62
7
0
LINE
10
418078.222
20
6498205.228
30
0.000
11
418078.207
21
6498205.209
31
0.000
8
0
6
XKITLINE00
62
7
0
LINE
10
418078.207
20
6498205.209
30
0.000
11
418078.192
21
6498205.190
31
0.000
8
0
6
XKITLINE00
62
7
0
LINE
10
418078.192
20
6498205.190
30
0.000
11
418078.176
21
6498205.171
31
0.000
8
0
6
XKITLINE00
62
7
0
LINE
10
418078.176
20
6498205.171
30
0.000
11
418078.160
21
6498205.152
31
0.000
8
0
6
XKITLINE00
62
7
0
LINE
10
418078.160
20
6498205.152
30
0.000
11
418078.144
21
6498205.134
31
0.000
8
0
6
XKITLINE00
62
7
0
LINE
10
418078.144
20
6498205.134
30
0.000
11
418078.127
21
6498205.117
31
0.000
8
0
6
XKITLINE00
62
7
0
LINE
10
418078.127
20
6498205.117
30
0.000
11
418078.109
21
6498205.099
31
0.000
8
0
6
XKITLINE00
62
7
0
LINE
10
418078.109
20
6498205.099
30
0.000
11
418078.091
21
6498205.083
31
0.000
8
0
6
XKITLINE00
62
7
0
LINE
10
418078.091
20
6498205.083
30
0.000
11
418078.073
21
6498205.066
31
0.000
8
0
6
XKITLINE00
62
7
0
LINE
10
418078.073
20
6498205.066
30
0.000
11
418078.054
21
6498205.050
31
0.000
8
0
6
XKITLINE00
62
7
0
LINE
10
418078.054
20
6498205.050
30
0.000
11
418078.035
21
6498205.035
31
0.000
8
0
6
XKITLINE00
62
7
0
LINE
10
418078.035
20
6498205.035
30
0.000
11
418078.016
21
6498205.020
31
0.000
8
0
6
XKITLINE00
62
7
0
LINE
10
418078.016
20
6498205.020
30
0.000
11
418077.996
21
6498205.005
31
0.000
8
0
6
XKITLINE00
62
7
0
LINE
10
418077.996
20
6498205.005
30
0.000
11
418077.976
21
6498204.991
31
0.000
8
0
6
XKITLINE00
62
7
0
LINE
10
418077.976
20
6498204.991
30
0.000
11
418077.955
21
6498204.978
31
0.000
8
0
6
XKITLINE00
62
7
0
LINE
10
418077.955
20
6498204.978
30
0.000
11
418077.934
21
6498204.965
31
0.000
8
0
6
XKITLINE00
62
7
0
LINE
10
418077.934
20
6498204.965
30
0.000
11
418077.913
21
6498204.953
31
0.000
8
0
6
XKITLINE00
62
7
0
LINE
10
418077.913
20
6498204.953
30
0.000
11
418077.892
21
6498204.941
31
0.000
8
0
6
XKITLINE00
62
7
0
LINE
10
418077.892
20
6498204.941
30
0.000
11
418077.870
21
6498204.929
31
0.000
8
0
6
XKITLINE00
62
7
0
LINE
10
418077.870
20
6498204.929
30
0.000
11
418077.848
21
6498204.918
31
0.000
8
0
6
XKITLINE00
62
7
0
LINE
10
418077.848
20
6498204.918
30
0.000
11
418077.826
21
6498204.908
31
0.000
8
0
6
XKITLINE00
62
7
0
LINE
10
418077.826
20
6498204.908
30
0.000
11
418077.803
21
6498204.898
31
0.000
8
0
6
XKITLINE00
62
7
0
LINE
10
418077.803
20
6498204.898
30
0.000
11
418077.780
21
6498204.889
31
0.000
8
0
6
XKITLINE00
62
7
0
LINE
10
418077.780
20
6498204.889
30
0.000
11
418077.757
21
6498204.880
31
0.000
8
0
6
XKITLINE00
62
7
0
LINE
10
418077.757
20
6498204.880
30
0.000
11
418077.734
21
6498204.872
31
0.000
8
0
6
XKITLINE00
62
7
0
LINE
10
418077.734
20
6498204.872
30
0.000
11
418077.711
21
6498204.865
31
0.000
8
0
6
XKITLINE00
62
7
0
LINE
10
418077.711
20
6498204.865
30
0.000
11
418077.687
21
6498204.858
31
0.000
8
0
6
XKITLINE00
62
7
0
LINE
10
418077.687
20
6498204.858
30
0.000
11
418077.664
21
6498204.851
31
0.000
8
0
6
XKITLINE00
62
7
0
LINE
10
418077.664
20
6498204.851
30
0.000
11
418077.640
21
6498204.846
31
0.000
8
0
6
XKITLINE00
62
7
0
LINE
10
418077.640
20
6498204.846
30
0.000
11
418077.616
21
6498204.841
31
0.000
8
0
6
XKITLINE00
62
7
0
LINE
10
418077.616
20
6498204.841
30
0.000
11
418077.592
21
6498204.836
31
0.000
8
0
6
XKITLINE00
62
7
0
LINE
10
418077.592
20
6498204.836
30
0.000
11
418077.567
21
6498204.832
31
0.000
8
0
6
XKITLINE00
62
7
0
LINE
10
418077.567
20
6498204.832
30
0.000
11
418077.543
21
6498204.829
31
0.000
8
0
6
XKITLINE00
62
7
0
LINE
10
418077.543
20
6498204.829
30
0.000
11
418077.519
21
6498204.826
31
0.000
8
0
6
XKITLINE00
62
7
0
LINE
10
418077.519
20
6498204.826
30
0.000
11
418077.494
21
6498204.823
31
0.000
8
0
6
XKITLINE00
62
7
0
LINE
10
418077.494
20
6498204.823
30
0.000
11
418077.470
21
6498204.822
31
0.000
8
0
6
XKITLINE00
62
7
0
LINE
10
418077.470
20
6498204.822
30
0.000
11
418077.445
21
6498204.821
31
0.000
8
0
6
XKITLINE00
62
7
0
LINE
10
418077.445
20
6498204.821
30
0.000
11
418077.421
21
6498204.820
31
0.000
8
0
6
XKITLINE00
62
7
0
LINE
10
418077.421
20
6498204.820
30
0.000
11
418077.396
21
6498204.821
31
0.000
8
0
6
XKITLINE00
62
7
0
LINE
10
418077.396
20
6498204.821
30
0.000
11
418077.372
21
6498204.821
31
0.000
8
0
6
XKITLINE00
62
7
0
LINE
10
418077.372
20
6498204.821
30
0.000
11
418077.347
21
6498204.823
31
0.000
8
0
6
XKITLINE00
62
7
0
LINE
10
418077.347
20
6498204.823
30
0.000
11
418077.323
21
6498204.825
31
0.000
8
0
6
XKITLINE00
62
7
0
LINE
10
418077.323
20
6498204.825
30
0.000
11
418077.298
21
6498204.827
31
0.000
8
0
6
XKITLINE00
62
7
0
LINE
10
418077.298
20
6498204.827
30
0.000
11
418077.274
21
6498204.831
31
0.000
8
0
6
XKITLINE00
62
7
0
LINE
10
418077.274
20
6498204.831
30
0.000
11
418077.250
21
6498204.834
31
0.000
8
0
6
XKITLINE00
62
7
0
LINE
10
418077.250
20
6498204.834
30
0.000
11
418077.226
21
6498204.839
31
0.000
8
0
6
XKITLINE00
62
7
0
LINE
10
418077.226
20
6498204.839
30
0.000
11
418077.202
21
6498204.844
31
0.000
8
0
6
XKITLINE00
62
7
0
LINE
10
418077.202
20
6498204.844
30
0.000
11
418077.178
21
6498204.849
31
0.000
8
0
6
XKITLINE00
62
7
0
LINE
10
418077.178
20
6498204.849
30
0.000
11
418077.154
21
6498204.855
31
0.000
8
0
6
XKITLINE00
62
7
0
LINE
10
418077.154
20
6498204.855
30
0.000
11
418077.130
21
6498204.862
31
0.000
8
0
6
XKITLINE00
62
7
0
LINE
10
418077.130
20
6498204.862
30
0.000
11
418077.107
21
6498204.869
31
0.000
8
0
6
XKITLINE00
62
7
0
LINE
10
418077.107
20
6498204.869
30
0.000
11
418077.084
21
6498204.877
31
0.000
8
0
6
XKITLINE00
62
7
0
LINE
10
418077.084
20
6498204.877
30
0.000
11
418077.061
21
6498204.886
31
0.000
8
0
6
XKITLINE00
62
7
0
LINE
10
418077.061
20
6498204.886
30
0.000
11
418077.038
21
6498204.895
31
0.000
8
0
6
XKITLINE00
62
7
0
LINE
10
418077.038
20
6498204.895
30
0.000
11
418077.015
21
6498204.904
31
0.000
8
0
6
XKITLINE00
62
7
0
LINE
10
418077.015
20
6498204.904
30
0.000
11
418076.993
21
6498204.915
31
0.000
8
0
6
XKITLINE00
62
7
0
LINE
10
418076.993
20
6498204.915
30
0.000
11
418076.971
21
6498204.925
31
0.000
8
0
6
XKITLINE00
62
7
0
LINE
10
418076.971
20
6498204.925
30
0.000
11
418076.949
21
6498204.936
31
0.000
8
0
6
XKITLINE00
62
7
0
LINE
10
418076.949
20
6498204.936
30
0.000
11
418076.927
21
6498204.948
31
0.000
8
0
6
XKITLINE00
62
7
0
LINE
10
418076.927
20
6498204.948
30
0.000
11
418076.906
21
6498204.960
31
0.000
8
0
6
XKITLINE00
62
7
0
LINE
10
418076.906
20
6498204.960
30
0.000
11
418076.885
21
6498204.973
31
0.000
8
0
6
XKITLINE00
62
7
0
LINE
10
418076.885
20
6498204.973
30
0.000
11
418076.864
21
6498204.986
31
0.000
8
0
6
XKITLINE00
62
7
0
LINE
10
418076.864
20
6498204.986
30
0.000
11
418076.844
21
6498205.000
31
0.000
8
0
6
XKITLINE00
62
7
0
LINE
10
418076.844
20
6498205.000
30
0.000
11
418076.824
21
6498205.015
31
0.000
8
0
6
XKITLINE00
62
7
0
LINE
10
418076.824
20
6498205.015
30
0.000
11
418076.805
21
6498205.029
31
0.000
8
0
6
XKITLINE00
62
7
0
LINE
10
418076.805
20
6498205.029
30
0.000
11
418076.785
21
6498205.045
31
0.000
8
0
6
XKITLINE00
62
7
0
LINE
10
418076.785
20
6498205.045
30
0.000
11
418076.767
21
6498205.060
31
0.000
8
0
6
XKITLINE00
62
7
0
LINE
10
418076.767
20
6498205.060
30
0.000
11
418076.748
21
6498205.076
31
0.000
8
0
6
XKITLINE00
62
7
0
LINE
10
418076.748
20
6498205.076
30
0.000
11
418076.730
21
6498205.093
31
0.000
8
0
6
XKITLINE00
62
7
0
LINE
10
418076.730
20
6498205.093
30
0.000
11
418076.712
21
6498205.110
31
0.000
8
0
6
XKITLINE00
62
7
0
LINE
10
418076.712
20
6498205.110
30
0.000
11
418076.695
21
6498205.128
31
0.000
8
0
6
XKITLINE00
62
7
0
LINE
10
418076.695
20
6498205.128
30
0.000
11
418076.678
21
6498205.146
31
0.000
8
0
6
XKITLINE00
62
7
0
LINE
10
418076.678
20
6498205.146
30
0.000
11
418076.662
21
6498205.164
31
0.000
8
0
6
XKITLINE00
62
7
0
LINE
10
418076.662
20
6498205.164
30
0.000
11
418076.646
21
6498205.183
31
0.000
8
0
6
XKITLINE00
62
7
0
LINE
10
418076.646
20
6498205.183
30
0.000
11
418076.631
21
6498205.202
31
0.000
8
0
6
XKITLINE00
62
7
0
LINE
10
418076.631
20
6498205.202
30
0.000
11
418076.616
21
6498205.221
31
0.000
8
0
6
XKITLINE00
62
7
0
LINE
10
418076.616
20
6498205.221
30
0.000
11
418076.601
21
6498205.241
31
0.000
8
0
6
XKITLINE00
62
7
0
LINE
10
418076.601
20
6498205.241
30
0.000
11
418076.587
21
6498205.261
31
0.000
8
0
6
XKITLINE00
62
7
0
LINE
10
418076.587
20
6498205.261
30
0.000
11
418076.574
21
6498205.282
31
0.000
8
0
6
XKITLINE00
62
7
0
LINE
10
418076.574
20
6498205.282
30
0.000
11
418076.561
21
6498205.302
31
0.000
8
0
6
XKITLINE00
62
7
0
LINE
10
418076.561
20
6498205.302
30
0.000
11
418076.548
21
6498205.324
31
0.000
8
0
6
XKITLINE00
62
7
0
LINE
10
418076.548
20
6498205.324
30
0.000
11
418076.537
21
6498205.345
31
0.000
8
0
6
XKITLINE00
62
7
0
LINE
10
418076.537
20
6498205.345
30
0.000
11
418076.525
21
6498205.367
31
0.000
8
0
6
XKITLINE00
62
7
0
LINE
10
418076.525
20
6498205.367
30
0.000
11
418076.514
21
6498205.389
31
0.000
8
0
6
XKITLINE00
62
7
0
LINE
10
418076.514
20
6498205.389
30
0.000
11
418076.504
21
6498205.411
31
0.000
8
0
6
XKITLINE00
62
7
0
LINE
10
418076.504
20
6498205.411
30
0.000
11
418076.494
21
6498205.434
31
0.000
8
0
6
XKITLINE00
62
7
0
LINE
10
418076.494
20
6498205.434
30
0.000
11
418076.485
21
6498205.456
31
0.000
8
0
6
XKITLINE00
62
7
0
LINE
10
418076.485
20
6498205.456
30
0.000
11
418076.476
21
6498205.479
31
0.000
8
0
6
XKITLINE00
62
7
0
LINE
10
418076.476
20
6498205.479
30
0.000
11
418076.468
21
6498205.502
31
0.000
8
0
6
XKITLINE00
62
7
0
LINE
10
418076.468
20
6498205.502
30
0.000
11
418076.461
21
6498205.526
31
0.000
8
0
6
XKITLINE00
62
7
0
LINE
10
418076.461
20
6498205.526
30
0.000
11
418076.454
21
6498205.549
31
0.000
8
0
6
XKITLINE00
62
7
0
LINE
10
418076.454
20
6498205.549
30
0.000
11
418076.447
21
6498205.573
31
0.000
8
0
6
XKITLINE00
62
7
0
LINE
10
418076.447
20
6498205.573
30
0.000
11
418076.442
21
6498205.597
31
0.000
8
0
6
XKITLINE00
62
7
0
LINE
10
418076.442
20
6498205.597
30
0.000
11
418076.436
21
6498205.621
31
0.000
8
0
6
XKITLINE00
62
7
0
LINE
10
418076.436
20
6498205.621
30
0.000
11
418076.432
21
6498205.645
31
0.000
8
0
6
XKITLINE00
62
7
0
LINE
10
418076.432
20
6498205.645
30
0.000
11
418076.428
21
6498205.669
31
0.000
8
0
6
XKITLINE00
62
7
0
LINE
10
418076.428
20
6498205.669
30
0.000
11
418076.424
21
6498205.694
31
0.000
8
0
6
XKITLINE00
62
7
0
LINE
10
418076.424
20
6498205.694
30
0.000
11
418076.422
21
6498205.718
31
0.000
8
0
6
XKITLINE00
62
7
0
LINE
10
418076.422
20
6498205.718
30
0.000
11
418076.419
21
6498205.742
31
0.000
8
0
6
XKITLINE00
62
7
0
LINE
10
418076.419
20
6498205.742
30
0.000
11
418076.418
21
6498205.767
31
0.000
8
0
6
XKITLINE00
62
7
0
LINE
10
418076.418
20
6498205.767
30
0.000
11
418076.417
21
6498205.791
31
0.000
8
0
6
XKITLINE00
62
7
0
LINE
10
418076.417
20
6498205.791
30
0.000
11
418076.416
21
6498205.816
31
0.000
8
0
6
XKITLINE00
62
7
0
LINE
10
418076.416
20
6498205.816
30
0.000
11
418076.417
21
6498205.840
31
0.000
8
0
6
XKITLINE00
62
7
0
LINE
10
418076.417
20
6498205.840
30
0.000
11
418076.417
21
6498205.865
31
0.000
8
0
6
XKITLINE00
62
7
0
LINE
10
418076.417
20
6498205.865
30
0.000
11
418076.419
21
6498205.889
31
0.000
8
0
6
XKITLINE00
62
7
0
LINE
10
418076.419
20
6498205.889
30
0.000
11
418076.421
21
6498205.914
31
0.000
8
0
6
XKITLINE00
62
7
0
LINE
10
418076.421
20
6498205.914
30
0.000
11
418076.423
21
6498205.938
31
0.000
8
0
6
XKITLINE00
62
7
0
LINE
10
418076.423
20
6498205.938
30
0.000
11
418076.426
21
6498205.963
31
0.000
8
0
6
XKITLINE00
62
7
0
LINE
10
418076.426
20
6498205.963
30
0.000
11
418076.430
21
6498205.987
31
0.000
8
0
6
XKITLINE00
62
7
0
LINE
10
418076.430
20
6498205.987
30
0.000
11
418076.435
21
6498206.011
31
0.000
8
0
6
XKITLINE00
62
7
0
LINE
10
418076.435
20
6498206.011
30
0.000
11
418076.440
21
6498206.035
31
0.000
8
0
6
XKITLINE00
62
7
0
LINE
10
418076.440
20
6498206.035
30
0.000
11
418076.445
21
6498206.059
31
0.000
8
0
6
XKITLINE00
62
7
0
LINE
10
418076.445
20
6498206.059
30
0.000
11
418076.451
21
6498206.083
31
0.000
8
0
6
XKITLINE00
62
7
0
LINE
10
418076.451
20
6498206.083
30
0.000
11
418076.458
21
6498206.106
31
0.000
8
0
6
XKITLINE00
62
7
0
LINE
10
418076.458
20
6498206.106
30
0.000
11
418076.465
21
6498206.130
31
0.000
8
0
6
XKITLINE00
62
7
0
LINE
10
418076.465
20
6498206.130
30
0.000
11
418076.473
21
6498206.153
31
0.000
8
0
6
XKITLINE00
62
7
0
LINE
10
418076.473
20
6498206.153
30
0.000
11
418076.482
21
6498206.176
31
0.000
8
0
6
XKITLINE00
62
7
0
LINE
10
418076.482
20
6498206.176
30
0.000
11
418076.491
21
6498206.199
31
0.000
8
0
6
XKITLINE00
62
7
0
LINE
10
418076.491
20
6498206.199
30
0.000
11
418076.500
21
6498206.222
31
0.000
8
0
6
XKITLINE00
62
7
0
LINE
10
418076.500
20
6498206.222
30
0.000
11
418076.510
21
6498206.244
31
0.000
8
0
6
XKITLINE00
62
7
0
LINE
10
418076.510
20
6498206.244
30
0.000
11
418076.521
21
6498206.266
31
0.000
8
0
6
XKITLINE00
62
7
0
LINE
10
418076.521
20
6498206.266
30
0.000
11
418076.532
21
6498206.288
31
0.000
8
0
6
XKITLINE00
62
7
0
LINE
10
418076.532
20
6498206.288
30
0.000
11
418076.544
21
6498206.309
31
0.000
8
0
6
XKITLINE00
62
7
0
LINE
10
418076.544
20
6498206.309
30
0.000
11
418076.556
21
6498206.331
31
0.000
8
0
6
XKITLINE00
62
7
0
LINE
10
418076.556
20
6498206.331
30
0.000
11
418076.569
21
6498206.352
31
0.000
8
0
6
XKITLINE00
62
7
0
LINE
10
418076.569
20
6498206.352
30
0.000
11
418076.582
21
6498206.372
31
0.000
8
0
6
XKITLINE00
62
7
0
LINE
10
418076.582
20
6498206.372
30
0.000
11
418076.596
21
6498206.393
31
0.000
8
0
6
XKITLINE00
62
7
0
LINE
10
418076.596
20
6498206.393
30
0.000
11
418076.610
21
6498206.413
31
0.000
8
0
6
XKITLINE00
62
7
0
LINE
10
418076.610
20
6498206.413
30
0.000
11
418076.625
21
6498206.432
31
0.000
8
0
6
XKITLINE00
62
7
0
LINE
10
418076.625
20
6498206.432
30
0.000
11
418076.640
21
6498206.451
31
0.000
8
0
6
XKITLINE00
62
7
0
LINE
10
418076.640
20
6498206.451
30
0.000
11
418076.656
21
6498206.470
31
0.000
8
0
6
XKITLINE00
62
7
0
LINE
10
418076.656
20
6498206.470
30
0.000
11
418076.672
21
6498206.489
31
0.000
8
0
6
XKITLINE00
62
7
0
LINE
10
418076.672
20
6498206.489
30
0.000
11
418076.689
21
6498206.507
31
0.000
8
0
6
XKITLINE00
62
7
0
LINE
10
418076.689
20
6498206.507
30
0.000
11
418076.706
21
6498206.524
31
0.000
8
0
6
XKITLINE00
62
7
0
LINE
10
418076.706
20
6498206.524
30
0.000
11
418076.724
21
6498206.542
31
0.000
8
0
6
XKITLINE00
62
7
0
LINE
10
418076.724
20
6498206.542
30
0.000
11
418076.741
21
6498206.558
31
0.000
8
0
6
XKITLINE00
62
7
0
LINE
10
418076.741
20
6498206.558
30
0.000
11
418076.760
21
6498206.575
31
0.000
8
0
6
XKITLINE00
62
7
0
LINE
10
418076.760
20
6498206.575
30
0.000
11
418076.778
21
6498206.591
31
0.000
8
0
6
XKITLINE00
62
7
0
LINE
10
418076.778
20
6498206.591
30
0.000
11
418076.798
21
6498206.606
31
0.000
8
0
6
XKITLINE00
62
7
0
LINE
10
418076.798
20
6498206.606
30
0.000
11
418076.817
21
6498206.621
31
0.000
8
0
6
XKITLINE00
62
7
0
LINE
10
418076.817
20
6498206.621
30
0.000
11
418076.837
21
6498206.635
31
0.000
8
0
6
XKITLINE00
62
7
0
LINE
10
418076.837
20
6498206.635
30
0.000
11
418076.857
21
6498206.649
31
0.000
8
0
6
XKITLINE00
62
7
0
LINE
10
418076.857
20
6498206.649
30
0.000
11
418076.878
21
6498206.663
31
0.000
8
0
6
XKITLINE00
62
7
0
LINE
10
418076.878
20
6498206.663
30
0.000
11
418076.898
21
6498206.676
31
0.000
8
0
6
XKITLINE00
62
7
0
LINE
10
418076.898
20
6498206.676
30
0.000
11
418076.919
21
6498206.688
31
0.000
8
0
6
XKITLINE00
62
7
0
LINE
10
418076.919
20
6498206.688
30
0.000
11
418076.941
21
6498206.700
31
0.000
8
0
6
XKITLINE00
62
7
0
LINE
10
418076.941
20
6498206.700
30
0.000
11
418076.963
21
6498206.712
31
0.000
8
0
6
XKITLINE00
62
7
0
LINE
10
418076.963
20
6498206.712
30
0.000
11
418076.985
21
6498206.722
31
0.000
8
0
6
XKITLINE00
62
7
0
LINE
10
418076.985
20
6498206.722
30
0.000
11
418077.007
21
6498206.733
31
0.000
8
0
6
XKITLINE00
62
7
0
LINE
10
418077.007
20
6498206.733
30
0.000
11
418077.029
21
6498206.743
31
0.000
8
0
6
XKITLINE00
62
7
0
LINE
10
418077.029
20
6498206.743
30
0.000
11
418077.052
21
6498206.752
31
0.000
8
0
6
XKITLINE00
62
7
0
LINE
10
418077.052
20
6498206.752
30
0.000
11
418077.075
21
6498206.760
31
0.000
8
0
6
XKITLINE00
62
7
0
LINE
10
418077.075
20
6498206.760
30
0.000
11
418077.098
21
6498206.769
31
0.000
8
0
6
XKITLINE00
62
7
0
LINE
10
418077.098
20
6498206.769
30
0.000
11
418077.122
21
6498206.776
31
0.000
8
0
6
XKITLINE00
62
7
0
LINE
10
418077.122
20
6498206.776
30
0.000
11
418077.145
21
6498206.783
31
0.000
8
0
6
XKITLINE00
62
7
0
LINE
10
418077.145
20
6498206.783
30
0.000
11
418077.169
21
6498206.789
31
0.000
8
0
6
XKITLINE00
62
7
0
LINE
10
418077.169
20
6498206.789
30
0.000
11
418077.193
21
6498206.795
31
0.000
8
0
6
XKITLINE00
62
7
0
LINE
10
418077.193
20
6498206.795
30
0.000
11
418077.217
21
6498206.800
31
0.000
8
0
6
XKITLINE00
62
7
0
LINE
10
418077.217
20
6498206.800
30
0.000
11
418077.241
21
6498206.805
31
0.000
8
0
6
XKITLINE00
62
7
0
LINE
10
418077.241
20
6498206.805
30
0.000
11
418077.265
21
6498206.809
31
0.000
8
0
6
XKITLINE00
62
7
0
LINE
10
418077.265
20
6498206.809
30
0.000
11
418077.289
21
6498206.812
31
0.000
8
0
6
XKITLINE00
62
7
0
LINE
10
418077.289
20
6498206.812
30
0.000
11
418077.289
21
6498206.812
31
0.000
8
0
6
XKITLINE00
62
7
0
LINE
10
418076.428
20
6498205.669
30
0.000
11
418069.508
21
6498204.611
31
0.000
8
0
6
XKITLINE02
62
7
0
LINE
10
418122.790
20
6498226.560
30
0.000
11
418122.802
21
6498226.539
31
0.000
8
0
6
XKITLINE00
62
7
0
LINE
10
418122.802
20
6498226.539
30
0.000
11
418122.814
21
6498226.517
31
0.000
8
0
6
XKITLINE00
62
7
0
LINE
10
418122.814
20
6498226.517
30
0.000
11
418122.825
21
6498226.496
31
0.000
8
0
6
XKITLINE00
62
7
0
LINE
10
418122.825
20
6498226.496
30
0.000
11
418122.835
21
6498226.473
31
0.000
8
0
6
XKITLINE00
62
7
0
LINE
10
418122.835
20
6498226.473
30
0.000
11
418122.845
21
6498226.451
31
0.000
8
0
6
XKITLINE00
62
7
0
LINE
10
418122.845
20
6498226.451
30
0.000
11
418122.855
21
6498226.428
31
0.000
8
0
6
XKITLINE00
62
7
0
LINE
10
418122.855
20
6498226.428
30
0.000
11
418122.864
21
6498226.406
31
0.000
8
0
6
XKITLINE00
62
7
0
LINE
10
418122.864
20
6498226.406
30
0.000
11
418122.872
21
6498226.383
31
0.000
8
0
6
XKITLINE00
62
7
0
LINE
10
418122.872
20
6498226.383
30
0.000
11
418122.880
21
6498226.359
31
0.000
8
0
6
XKITLINE00
62
7
0
LINE
10
418122.880
20
6498226.359
30
0.000
11
418122.888
21
6498226.336
31
0.000
8
0
6
XKITLINE00
62
7
0
LINE
10
418122.888
20
6498226.336
30
0.000
11
418122.894
21
6498226.312
31
0.000
8
0
6
XKITLINE00
62
7
0
LINE
10
418122.894
20
6498226.312
30
0.000
11
418122.900
21
6498226.289
31
0.000
8
0
6
XKITLINE00
62
7
0
LINE
10
418122.900
20
6498226.289
30
0.000
11
418122.906
21
6498226.265
31
0.000
8
0
6
XKITLINE00
62
7
0
LINE
10
418122.906
20
6498226.265
30
0.000
11
418122.911
21
6498226.241
31
0.000
8
0
6
XKITLINE00
62
7
0
LINE
10
418122.911
20
6498226.241
30
0.000
11
418122.915
21
6498226.216
31
0.000
8
0
6
XKITLINE00
62
7
0
LINE
10
418122.915
20
6498226.216
30
0.000
11
418122.919
21
6498226.192
31
0.000
8
0
6
XKITLINE00
62
7
0
LINE
10
418122.919
20
6498226.192
30
0.000
11
418122.922
21
6498226.168
31
0.000
8
0
6
XKITLINE00
62
7
0
LINE
10
418122.922
20
6498226.168
30
0.000
11
418122.925
21
6498226.143
31
0.000
8
0
6
XKITLINE00
62
7
0
LINE
10
418122.925
20
6498226.143
30
0.000
11
418122.927
21
6498226.119
31
0.000
8
0
6
XKITLINE00
62
7
0
LINE
10
418122.927
20
6498226.119
30
0.000
11
418122.928
21
6498226.094
31
0.000
8
0
6
XKITLINE00
62
7
0
LINE
10
418122.928
20
6498226.094
30
0.000
11
418122.929
21
6498226.070
31
0.000
8
0
6
XKITLINE00
62
7
0
LINE
10
418122.929
20
6498226.070
30
0.000
11
418122.929
21
6498226.045
31
0.000
8
0
6
XKITLINE00
62
7
0
LINE
10
418122.929
20
6498226.045
30
0.000
11
418122.928
21
6498226.021
31
0.000
8
0
6
XKITLINE00
62
7
0
LINE
10
418122.928
20
6498226.021
30
0.000
11
418122.927
21
6498225.996
31
0.000
8
0
6
XKITLINE00
62
7
0
LINE
10
418122.927
20
6498225.996
30
0.000
11
418122.926
21
6498225.972
31
0.000
8
0
6
XKITLINE00
62
7
0
LINE
10
418122.926
20
6498225.972
30
0.000
11
418122.923
21
6498225.947
31
0.000
8
0
6
XKITLINE00
62
7
0
LINE
10
418122.923
20
6498225.947
30
0.000
11
418122.921
21
6498225.923
31
0.000
8
0
6
XKITLINE00
62
7
0
LINE
10
418122.921
20
6498225.923
30
0.000
11
418122.917
21
6498225.899
31
0.000
8
0
6
XKITLINE00
62
7
0
LINE
10
418122.917
20
6498225.899
30
0.000
11
418122.913
21
6498225.874
31
0.000
8
0
6
XKITLINE00
62
7
0
LINE
10
418122.913
20
6498225.874
30
0.000
11
418122.909
21
6498225.850
31
0.000
8
0
6
XKITLINE00
62
7
0
LINE
10
418122.909
20
6498225.850
30
0.000
11
418122.903
21
6498225.826
31
0.000
8
0
6
XKITLINE00
62
7
0
LINE
10
418122.903
20
6498225.826
30
0.000
11
418122.897
21
6498225.803
31
0.000
8
0
6
XKITLINE00
62
7
0
LINE
10
418122.897
20
6498225.803
30
0.000
11
418122.891
21
6498225.779
31
0.000
8
0
6
XKITLINE00
62
7
0
LINE
10
418122.891
20
6498225.779
30
0.000
11
418122.884
21
6498225.755
31
0.000
8
0
6
XKITLINE00
62
7
0
LINE
10
418122.884
20
6498225.755
30
0.000
11
418122.877
21
6498225.732
31
0.000
8
0
6
XKITLINE00
62
7
0
LINE
10
418122.877
20
6498225.732
30
0.000
11
418122.868
21
6498225.709
31
0.000
8
0
6
XKITLINE00
62
7
0
LINE
10
418122.868
20
6498225.709
30
0.000
11
418122.860
21
6498225.686
31
0.000
8
0
6
XKITLINE00
62
7
0
LINE
10
418122.860
20
6498225.686
30
0.000
11
418122.850
21
6498225.663
31
0.000
8
0
6
XKITLINE00
62
7
0
LINE
10
418122.850
20
6498225.663
30
0.000
11
418122.841
21
6498225.641
31
0.000
8
0
6
XKITLINE00
62
7
0
LINE
10
418122.841
20
6498225.641
30
0.000
11
418122.830
21
6498225.618
31
0.000
8
0
6
XKITLINE00
62
7
0
LINE
10
418122.830
20
6498225.618
30
0.000
11
418122.819
21
6498225.596
31
0.000
8
0
6
XKITLINE00
62
7
0
LINE
10
418122.819
20
6498225.596
30
0.000
11
418122.808
21
6498225.575
31
0.000
8
0
6
XKITLINE00
62
7
0
LINE
10
418122.808
20
6498225.575
30
0.000
11
418122.796
21
6498225.553
31
0.000
8
0
6
XKITLINE00
62
7
0
LINE
10
418122.796
20
6498225.553
30
0.000
11
418122.784
21
6498225.532
31
0.000
8
0
6
XKITLINE00
62
7
0
LINE
10
418122.784
20
6498225.532
30
0.000
11
418122.771
21
6498225.511
31
0.000
8
0
6
XKITLINE00
62
7
0
LINE
10
418122.771
20
6498225.511
30
0.000
11
418122.757
21
6498225.491
31
0.000
8
0
6
XKITLINE00
62
7
0
LINE
10
418122.757
20
6498225.491
30
0.000
11
418122.743
21
6498225.471
31
0.000
8
0
6
XKITLINE00
62
7
0
LINE
10
418122.743
20
6498225.471
30
0.000
11
418122.729
21
6498225.451
31
0.000
8
0
6
XKITLINE00
62
7
0
LINE
10
418122.729
20
6498225.451
30
0.000
11
418122.714
21
6498225.431
31
0.000
8
0
6
XKITLINE00
62
7
0
LINE
10
418122.714
20
6498225.431
30
0.000
11
418122.698
21
6498225.412
31
0.000
8
0
6
XKITLINE00
62
7
0
LINE
10
418122.698
20
6498225.412
30
0.000
11
418122.682
21
6498225.394
31
0.000
8
0
6
XKITLINE00
62
7
0
LINE
10
418122.682
20
6498225.394
30
0.000
11
418122.666
21
6498225.375
31
0.000
8
0
6
XKITLINE00
62
7
0
LINE
10
418122.666
20
6498225.375
30
0.000
11
418122.649
21
6498225.357
31
0.000
8
0
6
XKITLINE00
62
7
0
LINE
10
418122.649
20
6498225.357
30
0.000
11
418122.632
21
6498225.340
31
0.000
8
0
6
XKITLINE00
62
7
0
LINE
10
418122.632
20
6498225.340
30
0.000
11
418122.614
21
6498225.323
31
0.000
8
0
6
XKITLINE00
62
7
0
LINE
10
418122.614
20
6498225.323
30
0.000
11
418122.596
21
6498225.306
31
0.000
8
0
6
XKITLINE00
62
7
0
LINE
10
418122.596
20
6498225.306
30
0.000
11
418122.578
21
6498225.290
31
0.000
8
0
6
XKITLINE00
62
7
0
LINE
10
418122.578
20
6498225.290
30
0.000
11
418122.559
21
6498225.275
31
0.000
8
0
6
XKITLINE00
62
7
0
LINE
10
418122.559
20
6498225.275
30
0.000
11
418122.539
21
6498225.259
31
0.000
8
0
6
XKITLINE00
62
7
0
LINE
10
418122.539
20
6498225.259
30
0.000
11
418122.520
21
6498225.245
31
0.000
8
0
6
XKITLINE00
62
7
0
LINE
10
418122.520
20
6498225.245
30
0.000
11
418122.500
21
6498225.230
31
0.000
8
0
6
XKITLINE00
62
7
0
LINE
10
418122.500
20
6498225.230
30
0.000
11
418122.480
21
6498225.217
31
0.000
8
0
6
XKITLINE00
62
7
0
LINE
10
418122.480
20
6498225.217
30
0.000
11
418122.459
21
6498225.203
31
0.000
8
0
6
XKITLINE00
62
7
0
LINE
10
418122.459
20
6498225.203
30
0.000
11
418122.438
21
6498225.191
31
0.000
8
0
6
XKITLINE00
62
7
0
LINE
10
418122.438
20
6498225.191
30
0.000
11
418122.417
21
6498225.178
31
0.000
8
0
6
XKITLINE00
62
7
0
LINE
10
418122.417
20
6498225.178
30
0.000
11
418122.395
21
6498225.167
31
0.000
8
0
6
XKITLINE00
62
7
0
LINE
10
418122.395
20
6498225.167
30
0.000
11
418122.373
21
6498225.155
31
0.000
8
0
6
XKITLINE00
62
7
0
LINE
10
418122.373
20
6498225.155
30
0.000
11
418122.351
21
6498225.145
31
0.000
8
0
6
XKITLINE00
62
7
0
LINE
10
418122.351
20
6498225.145
30
0.000
11
418122.329
21
6498225.135
31
0.000
8
0
6
XKITLINE00
62
7
0
LINE
10
418122.329
20
6498225.135
30
0.000
11
418122.306
21
6498225.125
31
0.000
8
0
6
XKITLINE00
62
7
0
LINE
10
418122.306
20
6498225.125
30
0.000
11
418122.283
21
6498225.116
31
0.000
8
0
6
XKITLINE00
62
7
0
LINE
10
418122.283
20
6498225.116
30
0.000
11
418122.260
21
6498225.108
31
0.000
8
0
6
XKITLINE00
62
7
0
LINE
10
418122.260
20
6498225.108
30
0.000
11
418122.237
21
6498225.100
31
0.000
8
0
6
XKITLINE00
62
7
0
LINE
10
418122.237
20
6498225.100
30
0.000
11
418122.214
21
6498225.093
31
0.000
8
0
6
XKITLINE00
62
7
0
LINE
10
418122.214
20
6498225.093
30
0.000
11
418122.190
21
6498225.086
31
0.000
8
0
6
XKITLINE00
62
7
0
LINE
10
418122.190
20
6498225.086
30
0.000
11
418122.166
21
6498225.080
31
0.000
8
0
6
XKITLINE00
62
7
0
LINE
10
418122.166
20
6498225.080
30
0.000
11
418122.142
21
6498225.074
31
0.000
8
0
6
XKITLINE00
62
7
0
LINE
10
418122.142
20
6498225.074
30
0.000
11
418122.118
21
6498225.069
31
0.000
8
0
6
XKITLINE00
62
7
0
LINE
10
418122.118
20
6498225.069
30
0.000
11
418122.094
21
6498225.065
31
0.000
8
0
6
XKITLINE00
62
7
0
LINE
10
418122.094
20
6498225.065
30
0.000
11
418122.070
21
6498225.061
31
0.000
8
0
6
XKITLINE00
62
7
0
LINE
10
418122.070
20
6498225.061
30
0.000
11
418122.045
21
6498225.058
31
0.000
8
0
6
XKITLINE00
62
7
0
LINE
10
418122.045
20
6498225.058
30
0.000
11
418122.021
21
6498225.056
31
0.000
8
0
6
XKITLINE00
62
7
0
LINE
10
418122.021
20
6498225.056
30
0.000
11
418121.997
21
6498225.054
31
0.000
8
0
6
XKITLINE00
62
7
0
LINE
10
418121.997
20
6498225.054
30
0.000
11
418121.972
21
6498225.052
31
0.000
8
0
6
XKITLINE00
62
7
0
LINE
10
418121.972
20
6498225.052
30
0.000
11
418121.948
21
6498225.051
31
0.000
8
0
6
XKITLINE00
62
7
0
LINE
10
418121.948
20
6498225.051
30
0.000
11
418121.923
21
6498225.051
31
0.000
8
0
6
XKITLINE00
62
7
0
LINE
10
418121.923
20
6498225.051
30
0.000
11
418121.898
21
6498225.052
31
0.000
8
0
6
XKITLINE00
62
7
0
LINE
10
418121.898
20
6498225.052
30
0.000
11
418121.874
21
6498225.053
31
0.000
8
0
6
XKITLINE00
62
7
0
LINE
10
418121.874
20
6498225.053
30
0.000
11
418121.849
21
6498225.054
31
0.000
8
0
6
XKITLINE00
62
7
0
LINE
10
418121.849
20
6498225.054
30
0.000
11
418121.825
21
6498225.057
31
0.000
8
0
6
XKITLINE00
62
7
0
LINE
10
418121.825
20
6498225.057
30
0.000
11
418121.801
21
6498225.060
31
0.000
8
0
6
XKITLINE00
62
7
0
LINE
10
418121.801
20
6498225.060
30
0.000
11
418121.776
21
6498225.063
31
0.000
8
0
6
XKITLINE00
62
7
0
LINE
10
418121.776
20
6498225.063
30
0.000
11
418121.752
21
6498225.067
31
0.000
8
0
6
XKITLINE00
62
7
0
LINE
10
418121.752
20
6498225.067
30
0.000
11
418121.728
21
6498225.072
31
0.000
8
0
6
XKITLINE00
62
7
0
LINE
10
418121.728
20
6498225.072
30
0.000
11
418121.704
21
6498225.077
31
0.000
8
0
6
XKITLINE00
62
7
0
LINE
10
418121.704
20
6498225.077
30
0.000
11
418121.680
21
6498225.083
31
0.000
8
0
6
XKITLINE00
62
7
0
LINE
10
418121.680
20
6498225.083
30
0.000
11
418121.656
21
6498225.089
31
0.000
8
0
6
XKITLINE00
62
7
0
LINE
10
418121.656
20
6498225.089
30
0.000
11
418121.633
21
6498225.096
31
0.000
8
0
6
XKITLINE00
62
7
0
LINE
10
418121.633
20
6498225.096
30
0.000
11
418121.610
21
6498225.104
31
0.000
8
0
6
XKITLINE00
62
7
0
LINE
10
418121.610
20
6498225.104
30
0.000
11
418121.586
21
6498225.112
31
0.000
8
0
6
XKITLINE00
62
7
0
LINE
10
418121.586
20
6498225.112
30
0.000
11
418121.563
21
6498225.120
31
0.000
8
0
6
XKITLINE00
62
7
0
LINE
10
418121.563
20
6498225.120
30
0.000
11
418121.541
21
6498225.130
31
0.000
8
0
6
XKITLINE00
62
7
0
LINE
10
418121.541
20
6498225.130
30
0.000
11
418121.518
21
6498225.139
31
0.000
8
0
6
XKITLINE00
62
7
0
LINE
10
418121.518
20
6498225.139
30
0.000
11
418121.496
21
6498225.150
31
0.000
8
0
6
XKITLINE00
62
7
0
LINE
10
418121.496
20
6498225.150
30
0.000
11
418121.474
21
6498225.161
31
0.000
8
0
6
XKITLINE00
62
7
0
LINE
10
418121.474
20
6498225.161
30
0.000
11
418121.452
21
6498225.172
31
0.000
8
0
6
XKITLINE00
62
7
0
LINE
10
418121.452
20
6498225.172
30
0.000
11
418121.431
21
6498225.184
31
0.000
8
0
6
XKITLINE00
62
7
0
LINE
10
418121.431
20
6498225.184
30
0.000
11
418121.410
21
6498225.197
31
0.000
8
0
6
XKITLINE00
62
7
0
LINE
10
418121.410
20
6498225.197
30
0.000
11
418121.389
21
6498225.210
31
0.000
8
0
6
XKITLINE00
62
7
0
LINE
10
418121.389
20
6498225.210
30
0.000
11
418121.368
21
6498225.223
31
0.000
8
0
6
XKITLINE00
62
7
0
LINE
10
418121.368
20
6498225.223
30
0.000
11
418121.348
21
6498225.237
31
0.000
8
0
6
XKITLINE00
62
7
0
LINE
10
418121.348
20
6498225.237
30
0.000
11
418121.328
21
6498225.252
31
0.000
8
0
6
XKITLINE00
62
7
0
LINE
10
418121.328
20
6498225.252
30
0.000
11
418121.309
21
6498225.267
31
0.000
8
0
6
XKITLINE00
62
7
0
LINE
10
418121.309
20
6498225.267
30
0.000
11
418121.290
21
6498225.282
31
0.000
8
0
6
XKITLINE00
62
7
0
LINE
10
418121.290
20
6498225.282
30
0.000
11
418121.271
21
6498225.298
31
0.000
8
0
6
XKITLINE00
62
7
0
LINE
10
418121.271
20
6498225.298
30
0.000
11
418121.253
21
6498225.314
31
0.000
8
0
6
XKITLINE00
62
7
0
LINE
10
418121.253
20
6498225.314
30
0.000
11
418121.235
21
6498225.331
31
0.000
8
0
6
XKITLINE00
62
7
0
LINE
10
418121.235
20
6498225.331
30
0.000
11
418121.218
21
6498225.348
31
0.000
8
0
6
XKITLINE00
62
7
0
LINE
10
418121.218
20
6498225.348
30
0.000
11
418121.201
21
6498225.366
31
0.000
8
0
6
XKITLINE00
62
7
0
LINE
10
418121.201
20
6498225.366
30
0.000
11
418121.184
21
6498225.384
31
0.000
8
0
6
XKITLINE00
62
7
0
LINE
10
418121.184
20
6498225.384
30
0.000
11
418121.168
21
6498225.403
31
0.000
8
0
6
XKITLINE00
62
7
0
LINE
10
418121.168
20
6498225.403
30
0.000
11
418121.152
21
6498225.421
31
0.000
8
0
6
XKITLINE00
62
7
0
LINE
10
418121.152
20
6498225.421
30
0.000
11
418121.137
21
6498225.441
31
0.000
8
0
6
XKITLINE00
62
7
0
LINE
10
418121.137
20
6498225.441
30
0.000
11
418121.122
21
6498225.460
31
0.000
8
0
6
XKITLINE00
62
7
0
LINE
10
418121.122
20
6498225.460
30
0.000
11
418121.108
21
6498225.480
31
0.000
8
0
6
XKITLINE00
62
7
0
LINE
10
418121.108
20
6498225.480
30
0.000
11
418121.094
21
6498225.501
31
0.000
8
0
6
XKITLINE00
62
7
0
LINE
10
418121.094
20
6498225.501
30
0.000
11
418121.081
21
6498225.521
31
0.000
8
0
6
XKITLINE00
62
7
0
LINE
10
418121.081
20
6498225.521
30
0.000
11
418121.068
21
6498225.542
31
0.000
8
0
6
XKITLINE00
62
7
0
LINE
10
418121.068
20
6498225.542
30
0.000
11
418121.056
21
6498225.564
31
0.000
8
0
6
XKITLINE00
62
7
0
LINE
10
418121.056
20
6498225.564
30
0.000
11
418121.044
21
6498225.585
31
0.000
8
0
6
XKITLINE00
62
7
0
LINE
10
418121.044
20
6498225.585
30
0.000
11
418121.033
21
6498225.607
31
0.000
8
0
6
XKITLINE00
62
7
0
LINE
10
418121.033
20
6498225.607
30
0.000
11
418121.022
21
6498225.629
31
0.000
8
0
6
XKITLINE00
62
7
0
LINE
10
418121.022
20
6498225.629
30
0.000
11
418121.012
21
6498225.651
31
0.000
8
0
6
XKITLINE00
62
7
0
LINE
10
418121.012
20
6498225.651
30
0.000
11
418121.003
21
6498225.674
31
0.000
8
0
6
XKITLINE00
62
7
0
LINE
10
418121.003
20
6498225.674
30
0.000
11
418120.994
21
6498225.697
31
0.000
8
0
6
XKITLINE00
62
7
0
LINE
10
418120.994
20
6498225.697
30
0.000
11
418120.985
21
6498225.720
31
0.000
8
0
6
XKITLINE00
62
7
0
LINE
10
418120.985
20
6498225.720
30
0.000
11
418120.978
21
6498225.743
31
0.000
8
0
6
XKITLINE00
62
7
0
LINE
10
418120.978
20
6498225.743
30
0.000
11
418120.970
21
6498225.767
31
0.000
8
0
6
XKITLINE00
62
7
0
LINE
10
418120.970
20
6498225.767
30
0.000
11
418120.964
21
6498225.790
31
0.000
8
0
6
XKITLINE00
62
7
0
LINE
10
418120.964
20
6498225.790
30
0.000
11
418120.957
21
6498225.814
31
0.000
8
0
6
XKITLINE00
62
7
0
LINE
10
418120.957
20
6498225.814
30
0.000
11
418120.952
21
6498225.838
31
0.000
8
0
6
XKITLINE00
62
7
0
LINE
10
418120.952
20
6498225.838
30
0.000
11
418120.947
21
6498225.862
31
0.000
8
0
6
XKITLINE00
62
7
0
LINE
10
418120.947
20
6498225.862
30
0.000
11
418120.943
21
6498225.886
31
0.000
8
0
6
XKITLINE00
62
7
0
LINE
10
418120.943
20
6498225.886
30
0.000
11
418120.939
21
6498225.910
31
0.000
8
0
6
XKITLINE00
62
7
0
LINE
10
418120.939
20
6498225.910
30
0.000
11
418120.936
21
6498225.935
31
0.000
8
0
6
XKITLINE00
62
7
0
LINE
10
418120.936
20
6498225.935
30
0.000
11
418120.933
21
6498225.959
31
0.000
8
0
6
XKITLINE00
62
7
0
LINE
10
418120.933
20
6498225.959
30
0.000
11
418120.931
21
6498225.984
31
0.000
8
0
6
XKITLINE00
62
7
0
LINE
10
418120.931
20
6498225.984
30
0.000
11
418120.930
21
6498226.008
31
0.000
8
0
6
XKITLINE00
62
7
0
LINE
10
418120.930
20
6498226.008
30
0.000
11
418120.929
21
6498226.033
31
0.000
8
0
6
XKITLINE00
62
7
0
LINE
10
418120.929
20
6498226.033
30
0.000
11
418120.929
21
6498226.057
31
0.000
8
0
6
XKITLINE00
62
7
0
LINE
10
418120.929
20
6498226.057
30
0.000
11
418120.929
21
6498226.082
31
0.000
8
0
6
XKITLINE00
62
7
0
LINE
10
418120.929
20
6498226.082
30
0.000
11
418120.930
21
6498226.106
31
0.000
8
0
6
XKITLINE00
62
7
0
LINE
10
418120.930
20
6498226.106
30
0.000
11
418120.932
21
6498226.131
31
0.000
8
0
6
XKITLINE00
62
7
0
LINE
10
418120.932
20
6498226.131
30
0.000
11
418120.934
21
6498226.155
31
0.000
8
0
6
XKITLINE00
62
7
0
LINE
10
418120.934
20
6498226.155
30
0.000
11
418120.937
21
6498226.180
31
0.000
8
0
6
XKITLINE00
62
7
0
LINE
10
418120.937
20
6498226.180
30
0.000
11
418120.941
21
6498226.204
31
0.000
8
0
6
XKITLINE00
62
7
0
LINE
10
418120.941
20
6498226.204
30
0.000
11
418120.945
21
6498226.228
31
0.000
8
0
6
XKITLINE00
62
7
0
LINE
10
418120.945
20
6498226.228
30
0.000
11
418120.949
21
6498226.252
31
0.000
8
0
6
XKITLINE00
62
7
0
LINE
10
418120.949
20
6498226.252
30
0.000
11
418120.955
21
6498226.276
31
0.000
8
0
6
XKITLINE00
62
7
0
LINE
10
418120.955
20
6498226.276
30
0.000
11
418120.960
21
6498226.300
31
0.000
8
0
6
XKITLINE00
62
7
0
LINE
10
418120.960
20
6498226.300
30
0.000
11
418120.967
21
6498226.324
31
0.000
8
0
6
XKITLINE00
62
7
0
LINE
10
418120.967
20
6498226.324
30
0.000
11
418120.974
21
6498226.347
31
0.000
8
0
6
XKITLINE00
62
7
0
LINE
10
418120.974
20
6498226.347
30
0.000
11
418120.981
21
6498226.371
31
0.000
8
0
6
XKITLINE00
62
7
0
LINE
10
418120.981
20
6498226.371
30
0.000
11
418120.989
21
6498226.394
31
0.000
8
0
6
XKITLINE00
62
7
0
LINE
10
418120.989
20
6498226.394
30
0.000
11
418120.998
21
6498226.417
31
0.000
8
0
6
XKITLINE00
62
7
0
LINE
10
418120.998
20
6498226.417
30
0.000
11
418121.007
21
6498226.439
31
0.000
8
0
6
XKITLINE00
62
7
0
LINE
10
418121.007
20
6498226.439
30
0.000
11
418121.017
21
6498226.462
31
0.000
8
0
6
XKITLINE00
62
7
0
LINE
10
418121.017
20
6498226.462
30
0.000
11
418121.027
21
6498226.484
31
0.000
8
0
6
XKITLINE00
62
7
0
LINE
10
418121.027
20
6498226.484
30
0.000
11
418121.038
21
6498226.506
31
0.000
8
0
6
XKITLINE00
62
7
0
LINE
10
418121.038
20
6498226.506
30
0.000
11
418121.050
21
6498226.528
31
0.000
8
0
6
XKITLINE00
62
7
0
LINE
10
418121.050
20
6498226.528
30
0.000
11
418121.062
21
6498226.549
31
0.000
8
0
6
XKITLINE00
62
7
0
LINE
10
418121.062
20
6498226.549
30
0.000
11
418121.074
21
6498226.570
31
0.000
8
0
6
XKITLINE00
62
7
0
LINE
10
418121.074
20
6498226.570
30
0.000
11
418121.087
21
6498226.591
31
0.000
8
0
6
XKITLINE00
62
7
0
LINE
10
418121.087
20
6498226.591
30
0.000
11
418121.101
21
6498226.612
31
0.000
8
0
6
XKITLINE00
62
7
0
LINE
10
418121.101
20
6498226.612
30
0.000
11
418121.115
21
6498226.632
31
0.000
8
0
6
XKITLINE00
62
7
0
LINE
10
418121.115
20
6498226.632
30
0.000
11
418121.129
21
6498226.652
31
0.000
8
0
6
XKITLINE00
62
7
0
LINE
10
418121.129
20
6498226.652
30
0.000
11
418121.144
21
6498226.671
31
0.000
8
0
6
XKITLINE00
62
7
0
LINE
10
418121.144
20
6498226.671
30
0.000
11
418121.160
21
6498226.690
31
0.000
8
0
6
XKITLINE00
62
7
0
LINE
10
418121.160
20
6498226.690
30
0.000
11
418121.176
21
6498226.709
31
0.000
8
0
6
XKITLINE00
62
7
0
LINE
10
418121.176
20
6498226.709
30
0.000
11
418121.192
21
6498226.727
31
0.000
8
0
6
XKITLINE00
62
7
0
LINE
10
418121.192
20
6498226.727
30
0.000
11
418121.209
21
6498226.745
31
0.000
8
0
6
XKITLINE00
62
7
0
LINE
10
418121.209
20
6498226.745
30
0.000
11
418121.226
21
6498226.763
31
0.000
8
0
6
XKITLINE00
62
7
0
LINE
10
418121.226
20
6498226.763
30
0.000
11
418121.244
21
6498226.780
31
0.000
8
0
6
XKITLINE00
62
7
0
LINE
10
418121.244
20
6498226.780
30
0.000
11
418121.262
21
6498226.796
31
0.000
8
0
6
XKITLINE00
62
7
0
LINE
10
418121.262
20
6498226.796
30
0.000
11
418121.280
21
6498226.812
31
0.000
8
0
6
XKITLINE00
62
7
0
LINE
10
418121.280
20
6498226.812
30
0.000
11
418121.299
21
6498226.828
31
0.000
8
0
6
XKITLINE00
62
7
0
LINE
10
418121.299
20
6498226.828
30
0.000
11
418121.318
21
6498226.843
31
0.000
8
0
6
XKITLINE00
62
7
0
LINE
10
418121.318
20
6498226.843
30
0.000
11
418121.338
21
6498226.858
31
0.000
8
0
6
XKITLINE00
62
7
0
LINE
10
418121.338
20
6498226.858
30
0.000
11
418121.358
21
6498226.872
31
0.000
8
0
6
XKITLINE00
62
7
0
LINE
10
418121.358
20
6498226.872
30
0.000
11
418121.378
21
6498226.886
31
0.000
8
0
6
XKITLINE00
62
7
0
LINE
10
418121.378
20
6498226.886
30
0.000
11
418121.399
21
6498226.899
31
0.000
8
0
6
XKITLINE00
62
7
0
LINE
10
418121.399
20
6498226.899
30
0.000
11
418121.420
21
6498226.912
31
0.000
8
0
6
XKITLINE00
62
7
0
LINE
10
418121.420
20
6498226.912
30
0.000
11
418121.441
21
6498226.924
31
0.000
8
0
6
XKITLINE00
62
7
0
LINE
10
418121.441
20
6498226.924
30
0.000
11
418121.463
21
6498226.936
31
0.000
8
0
6
XKITLINE00
62
7
0
LINE
10
418121.463
20
6498226.936
30
0.000
11
418121.485
21
6498226.947
31
0.000
8
0
6
XKITLINE00
62
7
0
LINE
10
418121.485
20
6498226.947
30
0.000
11
418121.507
21
6498226.958
31
0.000
8
0
6
XKITLINE00
62
7
0
LINE
10
418121.507
20
6498226.958
30
0.000
11
418121.529
21
6498226.968
31
0.000
8
0
6
XKITLINE00
62
7
0
LINE
10
418121.529
20
6498226.968
30
0.000
11
418121.552
21
6498226.977
31
0.000
8
0
6
XKITLINE00
62
7
0
LINE
10
418121.552
20
6498226.977
30
0.000
11
418121.575
21
6498226.986
31
0.000
8
0
6
XKITLINE00
62
7
0
LINE
10
418121.575
20
6498226.986
30
0.000
11
418121.598
21
6498226.995
31
0.000
8
0
6
XKITLINE00
62
7
0
LINE
10
418121.598
20
6498226.995
30
0.000
11
418121.621
21
6498227.003
31
0.000
8
0
6
XKITLINE00
62
7
0
LINE
10
418121.621
20
6498227.003
30
0.000
11
418121.644
21
6498227.010
31
0.000
8
0
6
XKITLINE00
62
7
0
LINE
10
418121.644
20
6498227.010
30
0.000
11
418121.668
21
6498227.017
31
0.000
8
0
6
XKITLINE00
62
7
0
LINE
10
418121.668
20
6498227.017
30
0.000
11
418121.692
21
6498227.023
31
0.000
8
0
6
XKITLINE00
62
7
0
LINE
10
418121.692
20
6498227.023
30
0.000
11
418121.716
21
6498227.028
31
0.000
8
0
6
XKITLINE00
62
7
0
LINE
10
418121.716
20
6498227.028
30
0.000
11
418121.740
21
6498227.033
31
0.000
8
0
6
XKITLINE00
62
7
0
LINE
10
418121.740
20
6498227.033
30
0.000
11
418121.764
21
6498227.038
31
0.000
8
0
6
XKITLINE00
62
7
0
LINE
10
418121.764
20
6498227.038
30
0.000
11
418121.788
21
6498227.041
31
0.000
8
0
6
XKITLINE00
62
7
0
LINE
10
418121.788
20
6498227.041
30
0.000
11
418121.812
21
6498227.044
31
0.000
8
0
6
XKITLINE00
62
7
0
LINE
10
418121.812
20
6498227.044
30
0.000
11
418121.837
21
6498227.047
31
0.000
8
0
6
XKITLINE00
62
7
0
LINE
10
418121.837
20
6498227.047
30
0.000
11
418121.861
21
6498227.049
31
0.000
8
0
6
XKITLINE00
62
7
0
LINE
10
418121.861
20
6498227.049
30
0.000
11
418121.886
21
6498227.050
31
0.000
8
0
6
XKITLINE00
62
7
0
LINE
10
418121.886
20
6498227.050
30
0.000
11
418121.910
21
6498227.051
31
0.000
8
0
6
XKITLINE00
62
7
0
LINE
10
418121.910
20
6498227.051
30
0.000
11
418121.935
21
6498227.051
31
0.000
8
0
6
XKITLINE00
62
7
0
LINE
10
418121.935
20
6498227.051
30
0.000
11
418121.959
21
6498227.051
31
0.000
8
0
6
XKITLINE00
62
7
0
LINE
10
418121.959
20
6498227.051
30
0.000
11
418121.984
21
6498227.050
31
0.000
8
0
6
XKITLINE00
62
7
0
LINE
10
418121.984
20
6498227.050
30
0.000
11
418122.008
21
6498227.048
31
0.000
8
0
6
XKITLINE00
62
7
0
LINE
10
418122.008
20
6498227.048
30
0.000
11
418122.033
21
6498227.046
31
0.000
8
0
6
XKITLINE00
62
7
0
LINE
10
418122.033
20
6498227.046
30
0.000
11
418122.057
21
6498227.043
31
0.000
8
0
6
XKITLINE00
62
7
0
LINE
10
418122.057
20
6498227.043
30
0.000
11
418122.081
21
6498227.040
31
0.000
8
0
6
XKITLINE00
62
7
0
LINE
10
418122.081
20
6498227.040
30
0.000
11
418122.106
21
6498227.036
31
0.000
8
0
6
XKITLINE00
62
7
0
LINE
10
418122.106
20
6498227.036
30
0.000
11
418122.130
21
6498227.031
31
0.000
8
0
6
XKITLINE00
62
7
0
LINE
10
418122.130
20
6498227.031
30
0.000
11
418122.154
21
6498227.026
31
0.000
8
0
6
XKITLINE00
62
7
0
LINE
10
418122.154
20
6498227.026
30
0.000
11
418122.178
21
6498227.020
31
0.000
8
0
6
XKITLINE00
62
7
0
LINE
10
418122.178
20
6498227.020
30
0.000
11
418122.201
21
6498227.013
31
0.000
8
0
6
XKITLINE00
62
7
0
LINE
10
418122.201
20
6498227.013
30
0.000
11
418122.225
21
6498227.006
31
0.000
8
0
6
XKITLINE00
62
7
0
LINE
10
418122.225
20
6498227.006
30
0.000
11
418122.248
21
6498226.999
31
0.000
8
0
6
XKITLINE00
62
7
0
LINE
10
418122.248
20
6498226.999
30
0.000
11
418122.271
21
6498226.991
31
0.000
8
0
6
XKITLINE00
62
7
0
LINE
10
418122.271
20
6498226.991
30
0.000
11
418122.294
21
6498226.982
31
0.000
8
0
6
XKITLINE00
62
7
0
LINE
10
418122.294
20
6498226.982
30
0.000
11
418122.317
21
6498226.973
31
0.000
8
0
6
XKITLINE00
62
7
0
LINE
10
418122.317
20
6498226.973
30
0.000
11
418122.340
21
6498226.963
31
0.000
8
0
6
XKITLINE00
62
7
0
LINE
10
418122.340
20
6498226.963
30
0.000
11
418122.362
21
6498226.953
31
0.000
8
0
6
XKITLINE00
62
7
0
LINE
10
418122.362
20
6498226.953
30
0.000
11
418122.384
21
6498226.942
31
0.000
8
0
6
XKITLINE00
62
7
0
LINE
10
418122.384
20
6498226.942
30
0.000
11
418122.405
21
6498226.930
31
0.000
8
0
6
XKITLINE00
62
7
0
LINE
10
418122.405
20
6498226.930
30
0.000
11
418122.427
21
6498226.918
31
0.000
8
0
6
XKITLINE00
62
7
0
LINE
10
418122.427
20
6498226.918
30
0.000
11
418122.448
21
6498226.906
31
0.000
8
0
6
XKITLINE00
62
7
0
LINE
10
418122.448
20
6498226.906
30
0.000
11
418122.469
21
6498226.893
31
0.000
8
0
6
XKITLINE00
62
7
0
LINE
10
418122.469
20
6498226.893
30
0.000
11
418122.489
21
6498226.879
31
0.000
8
0
6
XKITLINE00
62
7
0
LINE
10
418122.489
20
6498226.879
30
0.000
11
418122.510
21
6498226.865
31
0.000
8
0
6
XKITLINE00
62
7
0
LINE
10
418122.510
20
6498226.865
30
0.000
11
418122.529
21
6498226.851
31
0.000
8
0
6
XKITLINE00
62
7
0
LINE
10
418122.529
20
6498226.851
30
0.000
11
418122.549
21
6498226.836
31
0.000
8
0
6
XKITLINE00
62
7
0
LINE
10
418122.549
20
6498226.836
30
0.000
11
418122.568
21
6498226.821
31
0.000
8
0
6
XKITLINE00
62
7
0
LINE
10
418122.568
20
6498226.821
30
0.000
11
418122.587
21
6498226.805
31
0.000
8
0
6
XKITLINE00
62
7
0
LINE
10
418122.587
20
6498226.805
30
0.000
11
418122.605
21
6498226.788
31
0.000
8
0
6
XKITLINE00
62
7
0
LINE
10
418122.605
20
6498226.788
30
0.000
11
418122.623
21
6498226.771
31
0.000
8
0
6
XKITLINE00
62
7
0
LINE
10
418122.623
20
6498226.771
30
0.000
11
418122.640
21
6498226.754
31
0.000
8
0
6
XKITLINE00
62
7
0
LINE
10
418122.640
20
6498226.754
30
0.000
11
418122.657
21
6498226.737
31
0.000
8
0
6
XKITLINE00
62
7
0
LINE
10
418122.657
20
6498226.737
30
0.000
11
418122.674
21
6498226.718
31
0.000
8
0
6
XKITLINE00
62
7
0
LINE
10
418122.674
20
6498226.718
30
0.000
11
418122.690
21
6498226.700
31
0.000
8
0
6
XKITLINE00
62
7
0
LINE
10
418122.690
20
6498226.700
30
0.000
11
418122.706
21
6498226.681
31
0.000
8
0
6
XKITLINE00
62
7
0
LINE
10
418122.706
20
6498226.681
30
0.000
11
418122.721
21
6498226.662
31
0.000
8
0
6
XKITLINE00
62
7
0
LINE
10
418122.721
20
6498226.662
30
0.000
11
418122.736
21
6498226.642
31
0.000
8
0
6
XKITLINE00
62
7
0
LINE
10
418122.736
20
6498226.642
30
0.000
11
418122.750
21
6498226.622
31
0.000
8
0
6
XKITLINE00
62
7
0
LINE
10
418122.750
20
6498226.622
30
0.000
11
418122.764
21
6498226.602
31
0.000
8
0
6
XKITLINE00
62
7
0
LINE
10
418122.764
20
6498226.602
30
0.000
11
418122.777
21
6498226.581
31
0.000
8
0
6
XKITLINE00
62
7
0
LINE
10
418122.777
20
6498226.581
30
0.000
11
418122.790
21
6498226.560
31
0.000
8
0
6
XKITLINE00
62
7
0
LINE
10
418122.790
20
6498226.560
30
0.000
11
418122.790
21
6498226.560
31
0.000
8
0
6
XKITLINE00
62
7
0
LINE
10
418121.399
20
6498226.899
30
0.000
11
418117.689
21
6498232.835
31
0.000
8
0
6
XKITLINE02
62
7
0
LINE
10
418064.042
20
6498205.400
30
0.000
11
418064.018
21
6498205.396
31
0.000
8
0
6
XKITLINE00
62
7
0
LINE
10
418064.018
20
6498205.396
30
0.000
11
418063.994
21
6498205.394
31
0.000
8
0
6
XKITLINE00
62
7
0
LINE
10
418063.994
20
6498205.394
30
0.000
11
418063.969
21
6498205.392
31
0.000
8
0
6
XKITLINE00
62
7
0
LINE
10
418063.969
20
6498205.392
30
0.000
11
418063.945
21
6498205.390
31
0.000
8
0
6
XKITLINE00
62
7
0
LINE
10
418063.945
20
6498205.390
30
0.000
11
418063.920
21
6498205.389
31
0.000
8
0
6
XKITLINE00
62
7
0
LINE
10
418063.920
20
6498205.389
30
0.000
11
418063.896
21
6498205.389
31
0.000
8
0
6
XKITLINE00
62
7
0
LINE
10
418063.896
20
6498205.389
30
0.000
11
418063.871
21
6498205.389
31
0.000
8
0
6
XKITLINE00
62
7
0
LINE
10
418063.871
20
6498205.389
30
0.000
11
418063.847
21
6498205.390
31
0.000
8
0
6
XKITLINE00
62
7
0
LINE
10
418063.847
20
6498205.390
30
0.000
11
418063.822
21
6498205.391
31
0.000
8
0
6
XKITLINE00
62
7
0
LINE
10
418063.822
20
6498205.391
30
0.000
11
418063.798
21
6498205.393
31
0.000
8
0
6
XKITLINE00
62
7
0
LINE
10
418063.798
20
6498205.393
30
0.000
11
418063.773
21
6498205.396
31
0.000
8
0
6
XKITLINE00
62
7
0
LINE
10
418063.773
20
6498205.396
30
0.000
11
418063.749
21
6498205.399
31
0.000
8
0
6
XKITLINE00
62
7
0
LINE
10
418063.749
20
6498205.399
30
0.000
11
418063.725
21
6498205.403
31
0.000
8
0
6
XKITLINE00
62
7
0
LINE
10
418063.725
20
6498205.403
30
0.000
11
418063.701
21
6498205.407
31
0.000
8
0
6
XKITLINE00
62
7
0
LINE
10
418063.701
20
6498205.407
30
0.000
11
418063.677
21
6498205.412
31
0.000
8
0
6
XKITLINE00
62
7
0
LINE
10
418063.677
20
6498205.412
30
0.000
11
418063.653
21
6498205.418
31
0.000
8
0
6
XKITLINE00
62
7
0
LINE
10
418063.653
20
6498205.418
30
0.000
11
418063.629
21
6498205.424
31
0.000
8
0
6
XKITLINE00
62
7
0
LINE
10
418063.629
20
6498205.424
30
0.000
11
418063.605
21
6498205.431
31
0.000
8
0
6
XKITLINE00
62
7
0
LINE
10
418063.605
20
6498205.431
30
0.000
11
418063.582
21
6498205.438
31
0.000
8
0
6
XKITLINE00
62
7
0
LINE
10
418063.582
20
6498205.438
30
0.000
11
418063.559
21
6498205.446
31
0.000
8
0
6
XKITLINE00
62
7
0
LINE
10
418063.559
20
6498205.446
30
0.000
11
418063.536
21
6498205.455
31
0.000
8
0
6
XKITLINE00
62
7
0
LINE
10
418063.536
20
6498205.455
30
0.000
11
418063.513
21
6498205.464
31
0.000
8
0
6
XKITLINE00
62
7
0
LINE
10
418063.513
20
6498205.464
30
0.000
11
418063.490
21
6498205.474
31
0.000
8
0
6
XKITLINE00
62
7
0
LINE
10
418063.490
20
6498205.474
30
0.000
11
418063.468
21
6498205.484
31
0.000
8
0
6
XKITLINE00
62
7
0
LINE
10
418063.468
20
6498205.484
30
0.000
11
418063.446
21
6498205.494
31
0.000
8
0
6
XKITLINE00
62
7
0
LINE
10
418063.446
20
6498205.494
30
0.000
11
418063.424
21
6498205.506
31
0.000
8
0
6
XKITLINE00
62
7
0
LINE
10
418063.424
20
6498205.506
30
0.000
11
418063.403
21
6498205.517
31
0.000
8
0
6
XKITLINE00
62
7
0
LINE
10
418063.403
20
6498205.517
30
0.000
11
418063.381
21
6498205.530
31
0.000
8
0
6
XKITLINE00
62
7
0
LINE
10
418063.381
20
6498205.530
30
0.000
11
418063.360
21
6498205.543
31
0.000
8
0
6
XKITLINE00
62
7
0
LINE
10
418063.360
20
6498205.543
30
0.000
11
418063.340
21
6498205.556
31
0.000
8
0
6
XKITLINE00
62
7
0
LINE
10
418063.340
20
6498205.556
30
0.000
11
418063.319
21
6498205.570
31
0.000
8
0
6
XKITLINE00
62
7
0
LINE
10
418063.319
20
6498205.570
30
0.000
11
418063.300
21
6498205.584
31
0.000
8
0
6
XKITLINE00
62
7
0
LINE
10
418063.300
20
6498205.584
30
0.000
11
418063.280
21
6498205.599
31
0.000
8
0
6
XKITLINE00
62
7
0
LINE
10
418063.280
20
6498205.599
30
0.000
11
418063.261
21
6498205.614
31
0.000
8
0
6
XKITLINE00
62
7
0
LINE
10
418063.261
20
6498205.614
30
0.000
11
418063.242
21
6498205.630
31
0.000
8
0
6
XKITLINE00
62
7
0
LINE
10
418063.242
20
6498205.630
30
0.000
11
418063.224
21
6498205.646
31
0.000
8
0
6
XKITLINE00
62
7
0
LINE
10
418063.224
20
6498205.646
30
0.000
11
418063.206
21
6498205.663
31
0.000
8
0
6
XKITLINE00
62
7
0
LINE
10
418063.206
20
6498205.663
30
0.000
11
418063.188
21
6498205.680
31
0.000
8
0
6
XKITLINE00
62
7
0
LINE
10
418063.188
20
6498205.680
30
0.000
11
418063.171
21
6498205.697
31
0.000
8
0
6
XKITLINE00
62
7
0
LINE
10
418063.171
20
6498205.697
30
0.000
11
418063.154
21
6498205.715
31
0.000
8
0
6
XKITLINE00
62
7
0
LINE
10
418063.154
20
6498205.715
30
0.000
11
418063.138
21
6498205.734
31
0.000
8
0
6
XKITLINE00
62
7
0
LINE
10
418063.138
20
6498205.734
30
0.000
11
418063.122
21
6498205.753
31
0.000
8
0
6
XKITLINE00
62
7
0
LINE
10
418063.122
20
6498205.753
30
0.000
11
418063.106
21
6498205.772
31
0.000
8
0
6
XKITLINE00
62
7
0
LINE
10
418063.106
20
6498205.772
30
0.000
11
418063.092
21
6498205.791
31
0.000
8
0
6
XKITLINE00
62
7
0
LINE
10
418063.092
20
6498205.791
30
0.000
11
418063.077
21
6498205.811
31
0.000
8
0
6
XKITLINE00
62
7
0
LINE
10
418063.077
20
6498205.811
30
0.000
11
418063.063
21
6498205.831
31
0.000
8
0
6
XKITLINE00
62
7
0
LINE
10
418063.063
20
6498205.831
30
0.000
11
418063.050
21
6498205.852
31
0.000
8
0
6
XKITLINE00
62
7
0
LINE
10
418063.050
20
6498205.852
30
0.000
11
418063.037
21
6498205.873
31
0.000
8
0
6
XKITLINE00
62
7
0
LINE
10
418063.037
20
6498205.873
30
0.000
11
418063.024
21
6498205.894
31
0.000
8
0
6
XKITLINE00
62
7
0
LINE
10
418063.024
20
6498205.894
30
0.000
11
418063.013
21
6498205.915
31
0.000
8
0
6
XKITLINE00
62
7
0
LINE
10
418063.013
20
6498205.915
30
0.000
11
418063.001
21
6498205.937
31
0.000
8
0
6
XKITLINE00
62
7
0
LINE
10
418063.001
20
6498205.937
30
0.000
11
418062.990
21
6498205.959
31
0.000
8
0
6
XKITLINE00
62
7
0
LINE
10
418062.990
20
6498205.959
30
0.000
11
418062.980
21
6498205.981
31
0.000
8
0
6
XKITLINE00
62
7
0
LINE
10
418062.980
20
6498205.981
30
0.000
11
418062.970
21
6498206.004
31
0.000
8
0
6
XKITLINE00
62
7
0
LINE
10
418062.970
20
6498206.004
30
0.000
11
418062.961
21
6498206.027
31
0.000
8
0
6
XKITLINE00
62
7
0
LINE
10
418062.961
20
6498206.027
30
0.000
11
418062.953
21
6498206.050
31
0.000
8
0
6
XKITLINE00
62
7
0
LINE
10
418062.953
20
6498206.050
30
0.000
11
418062.945
21
6498206.073
31
0.000
8
0
6
XKITLINE00
62
7
0
LINE
10
418062.945
20
6498206.073
30
0.000
11
418062.937
21
6498206.096
31
0.000
8
0
6
XKITLINE00
62
7
0
LINE
10
418062.937
20
6498206.096
30
0.000
11
418062.930
21
6498206.120
31
0.000
8
0
6
XKITLINE00
62
7
0
LINE
10
418062.930
20
6498206.120
30
0.000
11
418062.924
21
6498206.143
31
0.000
8
0
6
XKITLINE00
62
7
0
LINE
10
418062.924
20
6498206.143
30
0.000
11
418062.918
21
6498206.167
31
0.000
8
0
6
XKITLINE00
62
7
0
LINE
10
418062.918
20
6498206.167
30
0.000
11
418062.913
21
6498206.191
31
0.000
8
0
6
XKITLINE00
62
7
0
LINE
10
418062.913
20
6498206.191
30
0.000
11
418062.909
21
6498206.215
31
0.000
8
0
6
XKITLINE00
62
7
0
LINE
10
418062.909
20
6498206.215
30
0.000
11
418062.905
21
6498206.240
31
0.000
8
0
6
XKITLINE00
62
7
0
LINE
10
418062.905
20
6498206.240
30
0.000
11
418062.901
21
6498206.264
31
0.000
8
0
6
XKITLINE00
62
7
0
LINE
10
418062.901
20
6498206.264
30
0.000
11
418062.898
21
6498206.288
31
0.000
8
0
6
XKITLINE00
62
7
0
LINE
10
418062.898
20
6498206.288
30
0.000
11
418062.896
21
6498206.313
31
0.000
8
0
6
XKITLINE00
62
7
0
LINE
10
418062.896
20
6498206.313
30
0.000
11
418062.895
21
6498206.337
31
0.000
8
0
6
XKITLINE00
62
7
0
LINE
10
418062.895
20
6498206.337
30
0.000
11
418062.894
21
6498206.362
31
0.000
8
0
6
XKITLINE00
62
7
0
LINE
10
418062.894
20
6498206.362
30
0.000
11
418062.893
21
6498206.386
31
0.000
8
0
6
XKITLINE00
62
7
0
LINE
10
418062.893
20
6498206.386
30
0.000
11
418062.894
21
6498206.411
31
0.000
8
0
6
XKITLINE00
62
7
0
LINE
10
418062.894
20
6498206.411
30
0.000
11
418062.894
21
6498206.435
31
0.000
8
0
6
XKITLINE00
62
7
0
LINE
10
418062.894
20
6498206.435
30
0.000
11
418062.896
21
6498206.460
31
0.000
8
0
6
XKITLINE00
62
7
0
LINE
10
418062.896
20
6498206.460
30
0.000
11
418062.898
21
6498206.484
31
0.000
8
0
6
XKITLINE00
62
7
0
LINE
10
418062.898
20
6498206.484
30
0.000
11
418062.901
21
6498206.509
31
0.000
8
0
6
XKITLINE00
62
7
0
LINE
10
418062.901
20
6498206.509
30
0.000
11
418062.904
21
6498206.533
31
0.000
8
0
6
XKITLINE00
62
7
0
LINE
10
418062.904
20
6498206.533
30
0.000
11
418062.908
21
6498206.557
31
0.000
8
0
6
XKITLINE00
62
7
0
LINE
10
418062.908
20
6498206.557
30
0.000
11
418062.912
21
6498206.582
31
0.000
8
0
6
XKITLINE00
62
7
0
LINE
10
418062.912
20
6498206.582
30
0.000
11
418062.917
21
6498206.606
31
0.000
8
0
6
XKITLINE00
62
7
0
LINE
10
418062.917
20
6498206.606
30
0.000
11
418062.923
21
6498206.629
31
0.000
8
0
6
XKITLINE00
62
7
0
LINE
10
418062.923
20
6498206.629
30
0.000
11
418062.929
21
6498206.653
31
0.000
8
0
6
XKITLINE00
62
7
0
LINE
10
418062.929
20
6498206.653
30
0.000
11
418062.936
21
6498206.677
31
0.000
8
0
6
XKITLINE00
62
7
0
LINE
10
418062.936
20
6498206.677
30
0.000
11
418062.943
21
6498206.700
31
0.000
8
0
6
XKITLINE00
62
7
0
LINE
10
418062.943
20
6498206.700
30
0.000
11
418062.951
21
6498206.723
31
0.000
8
0
6
XKITLINE00
62
7
0
LINE
10
418062.951
20
6498206.723
30
0.000
11
418062.960
21
6498206.746
31
0.000
8
0
6
XKITLINE00
62
7
0
LINE
10
418062.960
20
6498206.746
30
0.000
11
418062.969
21
6498206.769
31
0.000
8
0
6
XKITLINE00
62
7
0
LINE
10
418062.969
20
6498206.769
30
0.000
11
418062.978
21
6498206.792
31
0.000
8
0
6
XKITLINE00
62
7
0
LINE
10
418062.978
20
6498206.792
30
0.000
11
418062.988
21
6498206.814
31
0.000
8
0
6
XKITLINE00
62
7
0
LINE
10
418062.988
20
6498206.814
30
0.000
11
418062.999
21
6498206.836
31
0.000
8
0
6
XKITLINE00
62
7
0
LINE
10
418062.999
20
6498206.836
30
0.000
11
418063.010
21
6498206.858
31
0.000
8
0
6
XKITLINE00
62
7
0
LINE
10
418063.010
20
6498206.858
30
0.000
11
418063.022
21
6498206.880
31
0.000
8
0
6
XKITLINE00
62
7
0
LINE
10
418063.022
20
6498206.880
30
0.000
11
418063.034
21
6498206.901
31
0.000
8
0
6
XKITLINE00
62
7
0
LINE
10
418063.034
20
6498206.901
30
0.000
11
418063.047
21
6498206.922
31
0.000
8
0
6
XKITLINE00
62
7
0
LINE
10
418063.047
20
6498206.922
30
0.000
11
418063.061
21
6498206.942
31
0.000
8
0
6
XKITLINE00
62
7
0
LINE
10
418063.061
20
6498206.942
30
0.000
11
418063.074
21
6498206.963
31
0.000
8
0
6
XKITLINE00
62
7
0
LINE
10
418063.074
20
6498206.963
30
0.000
11
418063.089
21
6498206.983
31
0.000
8
0
6
XKITLINE00
62
7
0
LINE
10
418063.089
20
6498206.983
30
0.000
11
418063.104
21
6498207.002
31
0.000
8
0
6
XKITLINE00
62
7
0
LINE
10
418063.104
20
6498207.002
30
0.000
11
418063.119
21
6498207.021
31
0.000
8
0
6
XKITLINE00
62
7
0
LINE
10
418063.119
20
6498207.021
30
0.000
11
418063.135
21
6498207.040
31
0.000
8
0
6
XKITLINE00
62
7
0
LINE
10
418063.135
20
6498207.040
30
0.000
11
418063.151
21
6498207.059
31
0.000
8
0
6
XKITLINE00
62
7
0
LINE
10
418063.151
20
6498207.059
30
0.000
11
418063.168
21
6498207.077
31
0.000
8
0
6
XKITLINE00
62
7
0
LINE
10
418063.168
20
6498207.077
30
0.000
11
418063.185
21
6498207.094
31
0.000
8
0
6
XKITLINE00
62
7
0
LINE
10
418063.185
20
6498207.094
30
0.000
11
418063.202
21
6498207.111
31
0.000
8
0
6
XKITLINE00
62
7
0
LINE
10
418063.202
20
6498207.111
30
0.000
11
418063.220
21
6498207.128
31
0.000
8
0
6
XKITLINE00
62
7
0
LINE
10
418063.220
20
6498207.128
30
0.000
11
418063.238
21
6498207.144
31
0.000
8
0
6
XKITLINE00
62
7
0
LINE
10
418063.238
20
6498207.144
30
0.000
11
418063.257
21
6498207.160
31
0.000
8
0
6
XKITLINE00
62
7
0
LINE
10
418063.257
20
6498207.160
30
0.000
11
418063.276
21
6498207.176
31
0.000
8
0
6
XKITLINE00
62
7
0
LINE
10
418063.276
20
6498207.176
30
0.000
11
418063.296
21
6498207.191
31
0.000
8
0
6
XKITLINE00
62
7
0
LINE
10
418063.296
20
6498207.191
30
0.000
11
418063.316
21
6498207.205
31
0.000
8
0
6
XKITLINE00
62
7
0
LINE
10
418063.316
20
6498207.205
30
0.000
11
418063.336
21
6498207.219
31
0.000
8
0
6
XKITLINE00
62
7
0
LINE
10
418063.336
20
6498207.219
30
0.000
11
418063.356
21
6498207.232
31
0.000
8
0
6
XKITLINE00
62
7
0
LINE
10
418063.356
20
6498207.232
30
0.000
11
418063.377
21
6498207.245
31
0.000
8
0
6
XKITLINE00
62
7
0
LINE
10
418063.377
20
6498207.245
30
0.000
11
418063.398
21
6498207.258
31
0.000
8
0
6
XKITLINE00
62
7
0
LINE
10
418063.398
20
6498207.258
30
0.000
11
418063.420
21
6498207.270
31
0.000
8
0
6
XKITLINE00
62
7
0
LINE
10
418063.420
20
6498207.270
30
0.000
11
418063.442
21
6498207.281
31
0.000
8
0
6
XKITLINE00
62
7
0
LINE
10
418063.442
20
6498207.281
30
0.000
11
418063.464
21
6498207.292
31
0.000
8
0
6
XKITLINE00
62
7
0
LINE
10
418063.464
20
6498207.292
30
0.000
11
418063.486
21
6498207.302
31
0.000
8
0
6
XKITLINE00
62
7
0
LINE
10
418063.486
20
6498207.302
30
0.000
11
418063.509
21
6498207.312
31
0.000
8
0
6
XKITLINE00
62
7
0
LINE
10
418063.509
20
6498207.312
30
0.000
11
418063.531
21
6498207.321
31
0.000
8
0
6
XKITLINE00
62
7
0
LINE
10
418063.531
20
6498207.321
30
0.000
11
418063.554
21
6498207.329
31
0.000
8
0
6
XKITLINE00
62
7
0
LINE
10
418063.554
20
6498207.329
30
0.000
11
418063.578
21
6498207.337
31
0.000
8
0
6
XKITLINE00
62
7
0
LINE
10
418063.578
20
6498207.337
30
0.000
11
418063.601
21
6498207.345
31
0.000
8
0
6
XKITLINE00
62
7
0
LINE
10
418063.601
20
6498207.345
30
0.000
11
418063.624
21
6498207.352
31
0.000
8
0
6
XKITLINE00
62
7
0
LINE
10
418063.624
20
6498207.352
30
0.000
11
418063.648
21
6498207.358
31
0.000
8
0
6
XKITLINE00
62
7
0
LINE
10
418063.648
20
6498207.358
30
0.000
11
418063.672
21
6498207.364
31
0.000
8
0
6
XKITLINE00
62
7
0
LINE
10
418063.672
20
6498207.364
30
0.000
11
418063.696
21
6498207.369
31
0.000
8
0
6
XKITLINE00
62
7
0
LINE
10
418063.696
20
6498207.369
30
0.000
11
418063.720
21
6498207.374
31
0.000
8
0
6
XKITLINE00
62
7
0
LINE
10
418063.720
20
6498207.374
30
0.000
11
418063.744
21
6498207.378
31
0.000
8
0
6
XKITLINE00
62
7
0
LINE
10
418063.744
20
6498207.378
30
0.000
11
418063.769
21
6498207.381
31
0.000
8
0
6
XKITLINE00
62
7
0
LINE
10
418063.769
20
6498207.381
30
0.000
11
418063.793
21
6498207.384
31
0.000
8
0
6
XKITLINE00
62
7
0
LINE
10
418063.793
20
6498207.384
30
0.000
11
418063.818
21
6498207.386
31
0.000
8
0
6
XKITLINE00
62
7
0
LINE
10
418063.818
20
6498207.386
30
0.000
11
418063.842
21
6498207.387
31
0.000
8
0
6
XKITLINE00
62
7
0
LINE
10
418063.842
20
6498207.387
30
0.000
11
418063.867
21
6498207.388
31
0.000
8
0
6
XKITLINE00
62
7
0
LINE
10
418063.867
20
6498207.388
30
0.000
11
418063.891
21
6498207.389
31
0.000
8
0
6
XKITLINE00
62
7
0
LINE
10
418063.891
20
6498207.389
30
0.000
11
418063.916
21
6498207.388
31
0.000
8
0
6
XKITLINE00
62
7
0
LINE
10
418063.916
20
6498207.388
30
0.000
11
418063.940
21
6498207.388
31
0.000
8
0
6
XKITLINE00
62
7
0
LINE
10
418063.940
20
6498207.388
30
0.000
11
418063.965
21
6498207.386
31
0.000
8
0
6
XKITLINE00
62
7
0
LINE
10
418063.965
20
6498207.386
30
0.000
11
418063.989
21
6498207.384
31
0.000
8
0
6
XKITLINE00
62
7
0
LINE
10
418063.989
20
6498207.384
30
0.000
11
418064.014
21
6498207.381
31
0.000
8
0
6
XKITLINE00
62
7
0
LINE
10
418064.014
20
6498207.381
30
0.000
11
418064.038
21
6498207.378
31
0.000
8
0
6
XKITLINE00
62
7
0
LINE
10
418064.038
20
6498207.378
30
0.000
11
418064.062
21
6498207.374
31
0.000
8
0
6
XKITLINE00
62
7
0
LINE
10
418064.062
20
6498207.374
30
0.000
11
418064.086
21
6498207.370
31
0.000
8
0
6
XKITLINE00
62
7
0
LINE
10
418064.086
20
6498207.370
30
0.000
11
418064.110
21
6498207.365
31
0.000
8
0
6
XKITLINE00
62
7
0
LINE
10
418064.110
20
6498207.365
30
0.000
11
418064.134
21
6498207.359
31
0.000
8
0
6
XKITLINE00
62
7
0
LINE
10
418064.134
20
6498207.359
30
0.000
11
418064.158
21
6498207.353
31
0.000
8
0
6
XKITLINE00
62
7
0
LINE
10
418064.158
20
6498207.353
30
0.000
11
418064.181
21
6498207.346
31
0.000
8
0
6
XKITLINE00
62
7
0
LINE
10
418064.181
20
6498207.346
30
0.000
11
418064.205
21
6498207.339
31
0.000
8
0
6
XKITLINE00
62
7
0
LINE
10
418064.205
20
6498207.339
30
0.000
11
418064.228
21
6498207.331
31
0.000
8
0
6
XKITLINE00
62
7
0
LINE
10
418064.228
20
6498207.331
30
0.000
11
418064.251
21
6498207.323
31
0.000
8
0
6
XKITLINE00
62
7
0
LINE
10
418064.251
20
6498207.323
30
0.000
11
418064.274
21
6498207.313
31
0.000
8
0
6
XKITLINE00
62
7
0
LINE
10
418064.274
20
6498207.313
30
0.000
11
418064.297
21
6498207.304
31
0.000
8
0
6
XKITLINE00
62
7
0
LINE
10
418064.297
20
6498207.304
30
0.000
11
418064.319
21
6498207.294
31
0.000
8
0
6
XKITLINE00
62
7
0
LINE
10
418064.319
20
6498207.294
30
0.000
11
418064.341
21
6498207.283
31
0.000
8
0
6
XKITLINE00
62
7
0
LINE
10
418064.341
20
6498207.283
30
0.000
11
418064.363
21
6498207.272
31
0.000
8
0
6
XKITLINE00
62
7
0
LINE
10
418064.363
20
6498207.272
30
0.000
11
418064.384
21
6498207.260
31
0.000
8
0
6
XKITLINE00
62
7
0
LINE
10
418064.384
20
6498207.260
30
0.000
11
418064.406
21
6498207.248
31
0.000
8
0
6
XKITLINE00
62
7
0
LINE
10
418064.406
20
6498207.248
30
0.000
11
418064.426
21
6498207.235
31
0.000
8
0
6
XKITLINE00
62
7
0
LINE
10
418064.426
20
6498207.235
30
0.000
11
418064.447
21
6498207.221
31
0.000
8
0
6
XKITLINE00
62
7
0
LINE
10
418064.447
20
6498207.221
30
0.000
11
418064.467
21
6498207.208
31
0.000
8
0
6
XKITLINE00
62
7
0
LINE
10
418064.467
20
6498207.208
30
0.000
11
418064.487
21
6498207.193
31
0.000
8
0
6
XKITLINE00
62
7
0
LINE
10
418064.487
20
6498207.193
30
0.000
11
418064.507
21
6498207.178
31
0.000
8
0
6
XKITLINE00
62
7
0
LINE
10
418064.507
20
6498207.178
30
0.000
11
418064.526
21
6498207.163
31
0.000
8
0
6
XKITLINE00
62
7
0
LINE
10
418064.526
20
6498207.163
30
0.000
11
418064.545
21
6498207.147
31
0.000
8
0
6
XKITLINE00
62
7
0
LINE
10
418064.545
20
6498207.147
30
0.000
11
418064.563
21
6498207.131
31
0.000
8
0
6
XKITLINE00
62
7
0
LINE
10
418064.563
20
6498207.131
30
0.000
11
418064.581
21
6498207.115
31
0.000
8
0
6
XKITLINE00
62
7
0
LINE
10
418064.581
20
6498207.115
30
0.000
11
418064.599
21
6498207.097
31
0.000
8
0
6
XKITLINE00
62
7
0
LINE
10
418064.599
20
6498207.097
30
0.000
11
418064.616
21
6498207.080
31
0.000
8
0
6
XKITLINE00
62
7
0
LINE
10
418064.616
20
6498207.080
30
0.000
11
418064.633
21
6498207.062
31
0.000
8
0
6
XKITLINE00
62
7
0
LINE
10
418064.633
20
6498207.062
30
0.000
11
418064.649
21
6498207.044
31
0.000
8
0
6
XKITLINE00
62
7
0
LINE
10
418064.649
20
6498207.044
30
0.000
11
418064.665
21
6498207.025
31
0.000
8
0
6
XKITLINE00
62
7
0
LINE
10
418064.665
20
6498207.025
30
0.000
11
418064.680
21
6498207.006
31
0.000
8
0
6
XKITLINE00
62
7
0
LINE
10
418064.680
20
6498207.006
30
0.000
11
418064.695
21
6498206.986
31
0.000
8
0
6
XKITLINE00
62
7
0
LINE
10
418064.695
20
6498206.986
30
0.000
11
418064.710
21
6498206.966
31
0.000
8
0
6
XKITLINE00
62
7
0
LINE
10
418064.710
20
6498206.966
30
0.000
11
418064.724
21
6498206.946
31
0.000
8
0
6
XKITLINE00
62
7
0
LINE
10
418064.724
20
6498206.946
30
0.000
11
418064.737
21
6498206.926
31
0.000
8
0
6
XKITLINE00
62
7
0
LINE
10
418064.737
20
6498206.926
30
0.000
11
418064.750
21
6498206.905
31
0.000
8
0
6
XKITLINE00
62
7
0
LINE
10
418064.750
20
6498206.905
30
0.000
11
418064.762
21
6498206.884
31
0.000
8
0
6
XKITLINE00
62
7
0
LINE
10
418064.762
20
6498206.884
30
0.000
11
418064.774
21
6498206.862
31
0.000
8
0
6
XKITLINE00
62
7
0
LINE
10
418064.774
20
6498206.862
30
0.000
11
418064.786
21
6498206.840
31
0.000
8
0
6
XKITLINE00
62
7
0
LINE
10
418064.786
20
6498206.840
30
0.000
11
418064.796
21
6498206.818
31
0.000
8
0
6
XKITLINE00
62
7
0
LINE
10
418064.796
20
6498206.818
30
0.000
11
418064.807
21
6498206.796
31
0.000
8
0
6
XKITLINE00
62
7
0
LINE
10
418064.807
20
6498206.796
30
0.000
11
418064.816
21
6498206.774
31
0.000
8
0
6
XKITLINE00
62
7
0
LINE
10
418064.816
20
6498206.774
30
0.000
11
418064.826
21
6498206.751
31
0.000
8
0
6
XKITLINE00
62
7
0
LINE
10
418064.826
20
6498206.751
30
0.000
11
418064.834
21
6498206.728
31
0.000
8
0
6
XKITLINE00
62
7
0
LINE
10
418064.834
20
6498206.728
30
0.000
11
418064.842
21
6498206.705
31
0.000
8
0
6
XKITLINE00
62
7
0
LINE
10
418064.842
20
6498206.705
30
0.000
11
418064.850
21
6498206.681
31
0.000
8
0
6
XKITLINE00
62
7
0
LINE
10
418064.850
20
6498206.681
30
0.000
11
418064.857
21
6498206.658
31
0.000
8
0
6
XKITLINE00
62
7
0
LINE
10
418064.857
20
6498206.658
30
0.000
11
418064.863
21
6498206.634
31
0.000
8
0
6
XKITLINE00
62
7
0
LINE
10
418064.863
20
6498206.634
30
0.000
11
418064.869
21
6498206.610
31
0.000
8
0
6
XKITLINE00
62
7
0
LINE
10
418064.869
20
6498206.610
30
0.000
11
418064.874
21
6498206.586
31
0.000
8
0
6
XKITLINE00
62
7
0
LINE
10
418064.874
20
6498206.586
30
0.000
11
418064.878
21
6498206.562
31
0.000
8
0
6
XKITLINE00
62
7
0
LINE
10
418064.878
20
6498206.562
30
0.000
11
418064.882
21
6498206.538
31
0.000
8
0
6
XKITLINE00
62
7
0
LINE
10
418064.882
20
6498206.538
30
0.000
11
418064.886
21
6498206.513
31
0.000
8
0
6
XKITLINE00
62
7
0
LINE
10
418064.886
20
6498206.513
30
0.000
11
418064.888
21
6498206.489
31
0.000
8
0
6
XKITLINE00
62
7
0
LINE
10
418064.888
20
6498206.489
30
0.000
11
418064.891
21
6498206.465
31
0.000
8
0
6
XKITLINE00
62
7
0
LINE
10
418064.891
20
6498206.465
30
0.000
11
418064.892
21
6498206.440
31
0.000
8
0
6
XKITLINE00
62
7
0
LINE
10
418064.892
20
6498206.440
30
0.000
11
418064.893
21
6498206.416
31
0.000
8
0
6
XKITLINE00
62
7
0
LINE
10
418064.893
20
6498206.416
30
0.000
11
418064.893
21
6498206.391
31
0.000
8
0
6
XKITLINE00
62
7
0
LINE
10
418064.893
20
6498206.391
30
0.000
11
418064.893
21
6498206.366
31
0.000
8
0
6
XKITLINE00
62
7
0
LINE
10
418064.893
20
6498206.366
30
0.000
11
418064.892
21
6498206.342
31
0.000
8
0
6
XKITLINE00
62
7
0
LINE
10
418064.892
20
6498206.342
30
0.000
11
418064.891
21
6498206.317
31
0.000
8
0
6
XKITLINE00
62
7
0
LINE
10
418064.891
20
6498206.317
30
0.000
11
418064.889
21
6498206.293
31
0.000
8
0
6
XKITLINE00
62
7
0
LINE
10
418064.889
20
6498206.293
30
0.000
11
418064.886
21
6498206.269
31
0.000
8
0
6
XKITLINE00
62
7
0
LINE
10
418064.886
20
6498206.269
30
0.000
11
418064.883
21
6498206.244
31
0.000
8
0
6
XKITLINE00
62
7
0
LINE
10
418064.883
20
6498206.244
30
0.000
11
418064.879
21
6498206.220
31
0.000
8
0
6
XKITLINE00
62
7
0
LINE
10
418064.879
20
6498206.220
30
0.000
11
418064.875
21
6498206.196
31
0.000
8
0
6
XKITLINE00
62
7
0
LINE
10
418064.875
20
6498206.196
30
0.000
11
418064.870
21
6498206.172
31
0.000
8
0
6
XKITLINE00
62
7
0
LINE
10
418064.870
20
6498206.172
30
0.000
11
418064.864
21
6498206.148
31
0.000
8
0
6
XKITLINE00
62
7
0
LINE
10
418064.864
20
6498206.148
30
0.000
11
418064.858
21
6498206.124
31
0.000
8
0
6
XKITLINE00
62
7
0
LINE
10
418064.858
20
6498206.124
30
0.000
11
418064.851
21
6498206.101
31
0.000
8
0
6
XKITLINE00
62
7
0
LINE
10
418064.851
20
6498206.101
30
0.000
11
418064.844
21
6498206.077
31
0.000
8
0
6
XKITLINE00
62
7
0
LINE
10
418064.844
20
6498206.077
30
0.000
11
418064.836
21
6498206.054
31
0.000
8
0
6
XKITLINE00
62
7
0
LINE
10
418064.836
20
6498206.054
30
0.000
11
418064.827
21
6498206.031
31
0.000
8
0
6
XKITLINE00
62
7
0
LINE
10
418064.827
20
6498206.031
30
0.000
11
418064.818
21
6498206.008
31
0.000
8
0
6
XKITLINE00
62
7
0
LINE
10
418064.818
20
6498206.008
30
0.000
11
418064.809
21
6498205.986
31
0.000
8
0
6
XKITLINE00
62
7
0
LINE
10
418064.809
20
6498205.986
30
0.000
11
418064.798
21
6498205.963
31
0.000
8
0
6
XKITLINE00
62
7
0
LINE
10
418064.798
20
6498205.963
30
0.000
11
418064.788
21
6498205.941
31
0.000
8
0
6
XKITLINE00
62
7
0
LINE
10
418064.788
20
6498205.941
30
0.000
11
418064.776
21
6498205.919
31
0.000
8
0
6
XKITLINE00
62
7
0
LINE
10
418064.776
20
6498205.919
30
0.000
11
418064.765
21
6498205.898
31
0.000
8
0
6
XKITLINE00
62
7
0
LINE
10
418064.765
20
6498205.898
30
0.000
11
418064.752
21
6498205.877
31
0.000
8
0
6
XKITLINE00
62
7
0
LINE
10
418064.752
20
6498205.877
30
0.000
11
418064.739
21
6498205.856
31
0.000
8
0
6
XKITLINE00
62
7
0
LINE
10
418064.739
20
6498205.856
30
0.000
11
418064.726
21
6498205.835
31
0.000
8
0
6
XKITLINE00
62
7
0
LINE
10
418064.726
20
6498205.835
30
0.000
11
418064.712
21
6498205.815
31
0.000
8
0
6
XKITLINE00
62
7
0
LINE
10
418064.712
20
6498205.815
30
0.000
11
418064.698
21
6498205.795
31
0.000
8
0
6
XKITLINE00
62
7
0
LINE
10
418064.698
20
6498205.795
30
0.000
11
418064.683
21
6498205.775
31
0.000
8
0
6
XKITLINE00
62
7
0
LINE
10
418064.683
20
6498205.775
30
0.000
11
418064.668
21
6498205.756
31
0.000
8
0
6
XKITLINE00
62
7
0
LINE
10
418064.668
20
6498205.756
30
0.000
11
418064.652
21
6498205.737
31
0.000
8
0
6
XKITLINE00
62
7
0
LINE
10
418064.652
20
6498205.737
30
0.000
11
418064.636
21
6498205.719
31
0.000
8
0
6
XKITLINE00
62
7
0
LINE
10
418064.636
20
6498205.719
30
0.000
11
418064.619
21
6498205.701
31
0.000
8
0
6
XKITLINE00
62
7
0
LINE
10
418064.619
20
6498205.701
30
0.000
11
418064.602
21
6498205.683
31
0.000
8
0
6
XKITLINE00
62
7
0
LINE
10
418064.602
20
6498205.683
30
0.000
11
418064.585
21
6498205.666
31
0.000
8
0
6
XKITLINE00
62
7
0
LINE
10
418064.585
20
6498205.666
30
0.000
11
418064.567
21
6498205.649
31
0.000
8
0
6
XKITLINE00
62
7
0
LINE
10
418064.567
20
6498205.649
30
0.000
11
418064.548
21
6498205.633
31
0.000
8
0
6
XKITLINE00
62
7
0
LINE
10
418064.548
20
6498205.633
30
0.000
11
418064.530
21
6498205.617
31
0.000
8
0
6
XKITLINE00
62
7
0
LINE
10
418064.530
20
6498205.617
30
0.000
11
418064.510
21
6498205.602
31
0.000
8
0
6
XKITLINE00
62
7
0
LINE
10
418064.510
20
6498205.602
30
0.000
11
418064.491
21
6498205.587
31
0.000
8
0
6
XKITLINE00
62
7
0
LINE
10
418064.491
20
6498205.587
30
0.000
11
418064.471
21
6498205.572
31
0.000
8
0
6
XKITLINE00
62
7
0
LINE
10
418064.471
20
6498205.572
30
0.000
11
418064.451
21
6498205.559
31
0.000
8
0
6
XKITLINE00
62
7
0
LINE
10
418064.451
20
6498205.559
30
0.000
11
418064.430
21
6498205.545
31
0.000
8
0
6
XKITLINE00
62
7
0
LINE
10
418064.430
20
6498205.545
30
0.000
11
418064.409
21
6498205.532
31
0.000
8
0
6
XKITLINE00
62
7
0
LINE
10
418064.409
20
6498205.532
30
0.000
11
418064.388
21
6498205.520
31
0.000
8
0
6
XKITLINE00
62
7
0
LINE
10
418064.388
20
6498205.520
30
0.000
11
418064.367
21
6498205.508
31
0.000
8
0
6
XKITLINE00
62
7
0
LINE
10
418064.367
20
6498205.508
30
0.000
11
418064.345
21
6498205.497
31
0.000
8
0
6
XKITLINE00
62
7
0
LINE
10
418064.345
20
6498205.497
30
0.000
11
418064.323
21
6498205.486
31
0.000
8
0
6
XKITLINE00
62
7
0
LINE
10
418064.323
20
6498205.486
30
0.000
11
418064.301
21
6498205.475
31
0.000
8
0
6
XKITLINE00
62
7
0
LINE
10
418064.301
20
6498205.475
30
0.000
11
418064.278
21
6498205.466
31
0.000
8
0
6
XKITLINE00
62
7
0
LINE
10
418064.278
20
6498205.466
30
0.000
11
418064.255
21
6498205.457
31
0.000
8
0
6
XKITLINE00
62
7
0
LINE
10
418064.255
20
6498205.457
30
0.000
11
418064.232
21
6498205.448
31
0.000
8
0
6
XKITLINE00
62
7
0
LINE
10
418064.232
20
6498205.448
30
0.000
11
418064.209
21
6498205.440
31
0.000
8
0
6
XKITLINE00
62
7
0
LINE
10
418064.209
20
6498205.440
30
0.000
11
418064.186
21
6498205.432
31
0.000
8
0
6
XKITLINE00
62
7
0
LINE
10
418064.186
20
6498205.432
30
0.000
11
418064.162
21
6498205.426
31
0.000
8
0
6
XKITLINE00
62
7
0
LINE
10
418064.162
20
6498205.426
30
0.000
11
418064.139
21
6498205.419
31
0.000
8
0
6
XKITLINE00
62
7
0
LINE
10
418064.139
20
6498205.419
30
0.000
11
418064.115
21
6498205.413
31
0.000
8
0
6
XKITLINE00
62
7
0
LINE
10
418064.115
20
6498205.413
30
0.000
11
418064.091
21
6498205.408
31
0.000
8
0
6
XKITLINE00
62
7
0
LINE
10
418064.091
20
6498205.408
30
0.000
11
418064.067
21
6498205.404
31
0.000
8
0
6
XKITLINE00
62
7
0
LINE
10
418064.067
20
6498205.404
30
0.000
11
418064.042
21
6498205.400
31
0.000
8
0
6
XKITLINE00
62
7
0
LINE
10
418064.042
20
6498205.400
30
0.000
11
418064.042
21
6498205.400
31
0.000
8
0
6
XKITLINE00
62
7
0
LINE
10
418064.878
20
6498206.562
30
0.000
11
418071.772
21
6498207.775
31
0.000
8
0
6
XKITLINE02
62
7
0
LINE
10
418067.848
20
6498206.473
30
0.000
11
418067.864
21
6498206.491
31
0.000
8
0
6
XKITLINE00
62
7
0
LINE
10
418067.864
20
6498206.491
30
0.000
11
418067.881
21
6498206.509
31
0.000
8
0
6
XKITLINE00
62
7
0
LINE
10
418067.881
20
6498206.509
30
0.000
11
418067.899
21
6498206.526
31
0.000
8
0
6
XKITLINE00
62
7
0
LINE
10
418067.899
20
6498206.526
30
0.000
11
418067.917
21
6498206.543
31
0.000
8
0
6
XKITLINE00
62
7
0
LINE
10
418067.917
20
6498206.543
30
0.000
11
418067.935
21
6498206.559
31
0.000
8
0
6
XKITLINE00
62
7
0
LINE
10
418067.935
20
6498206.559
30
0.000
11
418067.954
21
6498206.575
31
0.000
8
0
6
XKITLINE00
62
7
0
LINE
10
418067.954
20
6498206.575
30
0.000
11
418067.973
21
6498206.591
31
0.000
8
0
6
XKITLINE00
62
7
0
LINE
10
418067.973
20
6498206.591
30
0.000
11
418067.992
21
6498206.606
31
0.000
8
0
6
XKITLINE00
62
7
0
LINE
10
418067.992
20
6498206.606
30
0.000
11
418068.012
21
6498206.620
31
0.000
8
0
6
XKITLINE00
62
7
0
LINE
10
418068.012
20
6498206.620
30
0.000
11
418068.032
21
6498206.634
31
0.000
8
0
6
XKITLINE00
62
7
0
LINE
10
418068.032
20
6498206.634
30
0.000
11
418068.053
21
6498206.648
31
0.000
8
0
6
XKITLINE00
62
7
0
LINE
10
418068.053
20
6498206.648
30
0.000
11
418068.073
21
6498206.661
31
0.000
8
0
6
XKITLINE00
62
7
0
LINE
10
418068.073
20
6498206.661
30
0.000
11
418068.094
21
6498206.673
31
0.000
8
0
6
XKITLINE00
62
7
0
LINE
10
418068.094
20
6498206.673
30
0.000
11
418068.116
21
6498206.685
31
0.000
8
0
6
XKITLINE00
62
7
0
LINE
10
418068.116
20
6498206.685
30
0.000
11
418068.138
21
6498206.697
31
0.000
8
0
6
XKITLINE00
62
7
0
LINE
10
418068.138
20
6498206.697
30
0.000
11
418068.160
21
6498206.708
31
0.000
8
0
6
XKITLINE00
62
7
0
LINE
10
418068.160
20
6498206.708
30
0.000
11
418068.182
21
6498206.718
31
0.000
8
0
6
XKITLINE00
62
7
0
LINE
10
418068.182
20
6498206.718
30
0.000
11
418068.204
21
6498206.728
31
0.000
8
0
6
XKITLINE00
62
7
0
LINE
10
418068.204
20
6498206.728
30
0.000
11
418068.227
21
6498206.737
31
0.000
8
0
6
XKITLINE00
62
7
0
LINE
10
418068.227
20
6498206.737
30
0.000
11
418068.250
21
6498206.746
31
0.000
8
0
6
XKITLINE00
62
7
0
LINE
10
418068.250
20
6498206.746
30
0.000
11
418068.273
21
6498206.754
31
0.000
8
0
6
XKITLINE00
62
7
0
LINE
10
418068.273
20
6498206.754
30
0.000
11
418068.296
21
6498206.762
31
0.000
8
0
6
XKITLINE00
62
7
0
LINE
10
418068.296
20
6498206.762
30
0.000
11
418068.320
21
6498206.769
31
0.000
8
0
6
XKITLINE00
62
7
0
LINE
10
418068.320
20
6498206.769
30
0.000
11
418068.344
21
6498206.775
31
0.000
8
0
6
XKITLINE00
62
7
0
LINE
10
418068.344
20
6498206.775
30
0.000
11
418068.367
21
6498206.781
31
0.000
8
0
6
XKITLINE00
62
7
0
LINE
10
418068.367
20
6498206.781
30
0.000
11
418068.391
21
6498206.786
31
0.000
8
0
6
XKITLINE00
62
7
0
LINE
10
418068.391
20
6498206.786
30
0.000
11
418068.416
21
6498206.791
31
0.000
8
0
6
XKITLINE00
62
7
0
LINE
10
418068.416
20
6498206.791
30
0.000
11
418068.440
21
6498206.795
31
0.000
8
0
6
XKITLINE00
62
7
0
LINE
10
418068.440
20
6498206.795
30
0.000
11
418068.464
21
6498206.798
31
0.000
8
0
6
XKITLINE00
62
7
0
LINE
10
418068.464
20
6498206.798
30
0.000
11
418068.488
21
6498206.801
31
0.000
8
0
6
XKITLINE00
62
7
0
LINE
10
418068.488
20
6498206.801
30
0.000
11
418068.513
21
6498206.804
31
0.000
8
0
6
XKITLINE00
62
7
0
LINE
10
418068.513
20
6498206.804
30
0.000
11
418068.537
21
6498206.805
31
0.000
8
0
6
XKITLINE00
62
7
0
LINE
10
418068.537
20
6498206.805
30
0.000
11
418068.562
21
6498206.806
31
0.000
8
0
6
XKITLINE00
62
7
0
LINE
10
418068.562
20
6498206.806
30
0.000
11
418068.586
21
6498206.807
31
0.000
8
0
6
XKITLINE00
62
7
0
LINE
10
418068.586
20
6498206.807
30
0.000
11
418068.611
21
6498206.807
31
0.000
8
0
6
XKITLINE00
62
7
0
LINE
10
418068.611
20
6498206.807
30
0.000
11
418068.635
21
6498206.806
31
0.000
8
0
6
XKITLINE00
62
7
0
LINE
10
418068.635
20
6498206.806
30
0.000
11
418068.660
21
6498206.805
31
0.000
8
0
6
XKITLINE00
62
7
0
LINE
10
418068.660
20
6498206.805
30
0.000
11
418068.684
21
6498206.803
31
0.000
8
0
6
XKITLINE00
62
7
0
LINE
10
418068.684
20
6498206.803
30
0.000
11
418068.709
21
6498206.800
31
0.000
8
0
6
XKITLINE00
62
7
0
LINE
10
418068.709
20
6498206.800
30
0.000
11
418068.733
21
6498206.797
31
0.000
8
0
6
XKITLINE00
62
7
0
LINE
10
418068.733
20
6498206.797
30
0.000
11
418068.757
21
6498206.793
31
0.000
8
0
6
XKITLINE00
62
7
0
LINE
10
418068.757
20
6498206.793
30
0.000
11
418068.782
21
6498206.789
31
0.000
8
0
6
XKITLINE00
62
7
0
LINE
10
418068.782
20
6498206.789
30
0.000
11
418068.806
21
6498206.784
31
0.000
8
0
6
XKITLINE00
62
7
0
LINE
10
418068.806
20
6498206.784
30
0.000
11
418068.830
21
6498206.779
31
0.000
8
0
6
XKITLINE00
62
7
0
LINE
10
418068.830
20
6498206.779
30
0.000
11
418068.853
21
6498206.773
31
0.000
8
0
6
XKITLINE00
62
7
0
LINE
10
418068.853
20
6498206.773
30
0.000
11
418068.877
21
6498206.766
31
0.000
8
0
6
XKITLINE00
62
7
0
LINE
10
418068.877
20
6498206.766
30
0.000
11
418068.900
21
6498206.759
31
0.000
8
0
6
XKITLINE00
62
7
0
LINE
10
418068.900
20
6498206.759
30
0.000
11
418068.924
21
6498206.751
31
0.000
8
0
6
XKITLINE00
62
7
0
LINE
10
418068.924
20
6498206.751
30
0.000
11
418068.947
21
6498206.742
31
0.000
8
0
6
XKITLINE00
62
7
0
LINE
10
418068.947
20
6498206.742
30
0.000
11
418068.970
21
6498206.734
31
0.000
8
0
6
XKITLINE00
62
7
0
LINE
10
418068.970
20
6498206.734
30
0.000
11
418068.992
21
6498206.724
31
0.000
8
0
6
XKITLINE00
62
7
0
LINE
10
418068.992
20
6498206.724
30
0.000
11
418069.015
21
6498206.714
31
0.000
8
0
6
XKITLINE00
62
7
0
LINE
10
418069.015
20
6498206.714
30
0.000
11
418069.037
21
6498206.703
31
0.000
8
0
6
XKITLINE00
62
7
0
LINE
10
418069.037
20
6498206.703
30
0.000
11
418069.059
21
6498206.692
31
0.000
8
0
6
XKITLINE00
62
7
0
LINE
10
418069.059
20
6498206.692
30
0.000
11
418069.080
21
6498206.681
31
0.000
8
0
6
XKITLINE00
62
7
0
LINE
10
418069.080
20
6498206.681
30
0.000
11
418069.102
21
6498206.668
31
0.000
8
0
6
XKITLINE00
62
7
0
LINE
10
418069.102
20
6498206.668
30
0.000
11
418069.123
21
6498206.656
31
0.000
8
0
6
XKITLINE00
62
7
0
LINE
10
418069.123
20
6498206.656
30
0.000
11
418069.143
21
6498206.642
31
0.000
8
0
6
XKITLINE00
62
7
0
LINE
10
418069.143
20
6498206.642
30
0.000
11
418069.164
21
6498206.629
31
0.000
8
0
6
XKITLINE00
62
7
0
LINE
10
418069.164
20
6498206.629
30
0.000
11
418069.184
21
6498206.614
31
0.000
8
0
6
XKITLINE00
62
7
0
LINE
10
418069.184
20
6498206.614
30
0.000
11
418069.203
21
6498206.600
31
0.000
8
0
6
XKITLINE00
62
7
0
LINE
10
418069.203
20
6498206.600
30
0.000
11
418069.222
21
6498206.584
31
0.000
8
0
6
XKITLINE00
62
7
0
LINE
10
418069.222
20
6498206.584
30
0.000
11
418069.241
21
6498206.569
31
0.000
8
0
6
XKITLINE00
62
7
0
LINE
10
418069.241
20
6498206.569
30
0.000
11
418069.260
21
6498206.553
31
0.000
8
0
6
XKITLINE00
62
7
0
LINE
10
418069.260
20
6498206.553
30
0.000
11
418069.278
21
6498206.536
31
0.000
8
0
6
XKITLINE00
62
7
0
LINE
10
418069.278
20
6498206.536
30
0.000
11
418069.296
21
6498206.519
31
0.000
8
0
6
XKITLINE00
62
7
0
LINE
10
418069.296
20
6498206.519
30
0.000
11
418069.313
21
6498206.502
31
0.000
8
0
6
XKITLINE00
62
7
0
LINE
10
418069.313
20
6498206.502
30
0.000
11
418069.330
21
6498206.484
31
0.000
8
0
6
XKITLINE00
62
7
0
LINE
10
418069.330
20
6498206.484
30
0.000
11
418069.346
21
6498206.466
31
0.000
8
0
6
XKITLINE00
62
7
0
LINE
10
418069.346
20
6498206.466
30
0.000
11
418069.362
21
6498206.447
31
0.000
8
0
6
XKITLINE00
62
7
0
LINE
10
418069.362
20
6498206.447
30
0.000
11
418069.378
21
6498206.428
31
0.000
8
0
6
XKITLINE00
62
7
0
LINE
10
418069.378
20
6498206.428
30
0.000
11
418069.393
21
6498206.408
31
0.000
8
0
6
XKITLINE00
62
7
0
LINE
10
418069.393
20
6498206.408
30
0.000
11
418069.407
21
6498206.389
31
0.000
8
0
6
XKITLINE00
62
7
0
LINE
10
418069.407
20
6498206.389
30
0.000
11
418069.421
21
6498206.368
31
0.000
8
0
6
XKITLINE00
62
7
0
LINE
10
418069.421
20
6498206.368
30
0.000
11
418069.435
21
6498206.348
31
0.000
8
0
6
XKITLINE00
62
7
0
LINE
10
418069.435
20
6498206.348
30
0.000
11
418069.448
21
6498206.327
31
0.000
8
0
6
XKITLINE00
62
7
0
LINE
10
418069.448
20
6498206.327
30
0.000
11
418069.460
21
6498206.306
31
0.000
8
0
6
XKITLINE00
62
7
0
LINE
10
418069.460
20
6498206.306
30
0.000
11
418069.472
21
6498206.285
31
0.000
8
0
6
XKITLINE00
62
7
0
LINE
10
418069.472
20
6498206.285
30
0.000
11
418069.484
21
6498206.263
31
0.000
8
0
6
XKITLINE00
62
7
0
LINE
10
418069.484
20
6498206.263
30
0.000
11
418069.495
21
6498206.241
31
0.000
8
0
6
XKITLINE00
62
7
0
LINE
10
418069.495
20
6498206.241
30
0.000
11
418069.505
21
6498206.219
31
0.000
8
0
6
XKITLINE00
62
7
0
LINE
10
418069.505
20
6498206.219
30
0.000
11
418069.515
21
6498206.196
31
0.000
8
0
6
XKITLINE00
62
7
0
LINE
10
418069.515
20
6498206.196
30
0.000
11
418069.524
21
6498206.174
31
0.000
8
0
6
XKITLINE00
62
7
0
LINE
10
418069.524
20
6498206.174
30
0.000
11
418069.533
21
6498206.151
31
0.000
8
0
6
XKITLINE00
62
7
0
LINE
10
418069.533
20
6498206.151
30
0.000
11
418069.541
21
6498206.127
31
0.000
8
0
6
XKITLINE00
62
7
0
LINE
10
418069.541
20
6498206.127
30
0.000
11
418069.548
21
6498206.104
31
0.000
8
0
6
XKITLINE00
62
7
0
LINE
10
418069.548
20
6498206.104
30
0.000
11
418069.555
21
6498206.081
31
0.000
8
0
6
XKITLINE00
62
7
0
LINE
10
418069.555
20
6498206.081
30
0.000
11
418069.562
21
6498206.057
31
0.000
8
0
6
XKITLINE00
62
7
0
LINE
10
418069.562
20
6498206.057
30
0.000
11
418069.568
21
6498206.033
31
0.000
8
0
6
XKITLINE00
62
7
0
LINE
10
418069.568
20
6498206.033
30
0.000
11
418069.573
21
6498206.009
31
0.000
8
0
6
XKITLINE00
62
7
0
LINE
10
418069.573
20
6498206.009
30
0.000
11
418069.578
21
6498205.985
31
0.000
8
0
6
XKITLINE00
62
7
0
LINE
10
418069.578
20
6498205.985
30
0.000
11
418069.582
21
6498205.961
31
0.000
8
0
6
XKITLINE00
62
7
0
LINE
10
418069.582
20
6498205.961
30
0.000
11
418069.585
21
6498205.937
31
0.000
8
0
6
XKITLINE00
62
7
0
LINE
10
418069.585
20
6498205.937
30
0.000
11
418069.588
21
6498205.912
31
0.000
8
0
6
XKITLINE00
62
7
0
LINE
10
418069.588
20
6498205.912
30
0.000
11
418069.590
21
6498205.888
31
0.000
8
0
6
XKITLINE00
62
7
0
LINE
10
418069.590
20
6498205.888
30
0.000
11
418069.592
21
6498205.863
31
0.000
8
0
6
XKITLINE00
62
7
0
LINE
10
418069.592
20
6498205.863
30
0.000
11
418069.593
21
6498205.839
31
0.000
8
0
6
XKITLINE00
62
7
0
LINE
10
418069.593
20
6498205.839
30
0.000
11
418069.594
21
6498205.814
31
0.000
8
0
6
XKITLINE00
62
7
0
LINE
10
418069.594
20
6498205.814
30
0.000
11
418069.594
21
6498205.790
31
0.000
8
0
6
XKITLINE00
62
7
0
LINE
10
418069.594
20
6498205.790
30
0.000
11
418069.593
21
6498205.765
31
0.000
8
0
6
XKITLINE00
62
7
0
LINE
10
418069.593
20
6498205.765
30
0.000
11
418069.591
21
6498205.741
31
0.000
8
0
6
XKITLINE00
62
7
0
LINE
10
418069.591
20
6498205.741
30
0.000
11
418069.590
21
6498205.716
31
0.000
8
0
6
XKITLINE00
62
7
0
LINE
10
418069.590
20
6498205.716
30
0.000
11
418069.587
21
6498205.692
31
0.000
8
0
6
XKITLINE00
62
7
0
LINE
10
418069.587
20
6498205.692
30
0.000
11
418069.584
21
6498205.667
31
0.000
8
0
6
XKITLINE00
62
7
0
LINE
10
418069.584
20
6498205.667
30
0.000
11
418069.580
21
6498205.643
31
0.000
8
0
6
XKITLINE00
62
7
0
LINE
10
418069.580
20
6498205.643
30
0.000
11
418069.576
21
6498205.619
31
0.000
8
0
6
XKITLINE00
62
7
0
LINE
10
418069.576
20
6498205.619
30
0.000
11
418069.571
21
6498205.595
31
0.000
8
0
6
XKITLINE00
62
7
0
LINE
10
418069.571
20
6498205.595
30
0.000
11
418069.565
21
6498205.571
31
0.000
8
0
6
XKITLINE00
62
7
0
LINE
10
418069.565
20
6498205.571
30
0.000
11
418069.559
21
6498205.547
31
0.000
8
0
6
XKITLINE00
62
7
0
LINE
10
418069.559
20
6498205.547
30
0.000
11
418069.553
21
6498205.524
31
0.000
8
0
6
XKITLINE00
62
7
0
LINE
10
418069.553
20
6498205.524
30
0.000
11
418069.545
21
6498205.500
31
0.000
8
0
6
XKITLINE00
62
7
0
LINE
10
418069.545
20
6498205.500
30
0.000
11
418069.538
21
6498205.477
31
0.000
8
0
6
XKITLINE00
62
7
0
LINE
10
418069.538
20
6498205.477
30
0.000
11
418069.529
21
6498205.454
31
0.000
8
0
6
XKITLINE00
62
7
0
LINE
10
418069.529
20
6498205.454
30
0.000
11
418069.520
21
6498205.431
31
0.000
8
0
6
XKITLINE00
62
7
0
LINE
10
418069.520
20
6498205.431
30
0.000
11
418069.511
21
6498205.408
31
0.000
8
0
6
XKITLINE00
62
7
0
LINE
10
418069.511
20
6498205.408
30
0.000
11
418069.501
21
6498205.386
31
0.000
8
0
6
XKITLINE00
62
7
0
LINE
10
418069.501
20
6498205.386
30
0.000
11
418069.490
21
6498205.364
31
0.000
8
0
6
XKITLINE00
62
7
0
LINE
10
418069.490
20
6498205.364
30
0.000
11
418069.479
21
6498205.342
31
0.000
8
0
6
XKITLINE00
62
7
0
LINE
10
418069.479
20
6498205.342
30
0.000
11
418069.467
21
6498205.320
31
0.000
8
0
6
XKITLINE00
62
7
0
LINE
10
418069.467
20
6498205.320
30
0.000
11
418069.455
21
6498205.299
31
0.000
8
0
6
XKITLINE00
62
7
0
LINE
10
418069.455
20
6498205.299
30
0.000
11
418069.442
21
6498205.278
31
0.000
8
0
6
XKITLINE00
62
7
0
LINE
10
418069.442
20
6498205.278
30
0.000
11
418069.429
21
6498205.257
31
0.000
8
0
6
XKITLINE00
62
7
0
LINE
10
418069.429
20
6498205.257
30
0.000
11
418069.415
21
6498205.237
31
0.000
8
0
6
XKITLINE00
62
7
0
LINE
10
418069.415
20
6498205.237
30
0.000
11
418069.401
21
6498205.217
31
0.000
8
0
6
XKITLINE00
62
7
0
LINE
10
418069.401
20
6498205.217
30
0.000
11
418069.386
21
6498205.197
31
0.000
8
0
6
XKITLINE00
62
7
0
LINE
10
418069.386
20
6498205.197
30
0.000
11
418069.371
21
6498205.178
31
0.000
8
0
6
XKITLINE00
62
7
0
LINE
10
418069.371
20
6498205.178
30
0.000
11
418069.356
21
6498205.159
31
0.000
8
0
6
XKITLINE00
62
7
0
LINE
10
418069.356
20
6498205.159
30
0.000
11
418069.339
21
6498205.141
31
0.000
8
0
6
XKITLINE00
62
7
0
LINE
10
418069.339
20
6498205.141
30
0.000
11
418069.323
21
6498205.123
31
0.000
8
0
6
XKITLINE00
62
7
0
LINE
10
418069.323
20
6498205.123
30
0.000
11
418069.306
21
6498205.105
31
0.000
8
0
6
XKITLINE00
62
7
0
LINE
10
418069.306
20
6498205.105
30
0.000
11
418069.288
21
6498205.088
31
0.000
8
0
6
XKITLINE00
62
7
0
LINE
10
418069.288
20
6498205.088
30
0.000
11
418069.271
21
6498205.071
31
0.000
8
0
6
XKITLINE00
62
7
0
LINE
10
418069.271
20
6498205.071
30
0.000
11
418069.252
21
6498205.054
31
0.000
8
0
6
XKITLINE00
62
7
0
LINE
10
418069.252
20
6498205.054
30
0.000
11
418069.234
21
6498205.039
31
0.000
8
0
6
XKITLINE00
62
7
0
LINE
10
418069.234
20
6498205.039
30
0.000
11
418069.215
21
6498205.023
31
0.000
8
0
6
XKITLINE00
62
7
0
LINE
10
418069.215
20
6498205.023
30
0.000
11
418069.195
21
6498205.008
31
0.000
8
0
6
XKITLINE00
62
7
0
LINE
10
418069.195
20
6498205.008
30
0.000
11
418069.175
21
6498204.994
31
0.000
8
0
6
XKITLINE00
62
7
0
LINE
10
418069.175
20
6498204.994
30
0.000
11
418069.155
21
6498204.979
31
0.000
8
0
6
XKITLINE00
62
7
0
LINE
10
418069.155
20
6498204.979
30
0.000
11
418069.135
21
6498204.966
31
0.000
8
0
6
XKITLINE00
62
7
0
LINE
10
418069.135
20
6498204.966
30
0.000
11
418069.114
21
6498204.953
31
0.000
8
0
6
XKITLINE00
62
7
0
LINE
10
418069.114
20
6498204.953
30
0.000
11
418069.093
21
6498204.940
31
0.000
8
0
6
XKITLINE00
62
7
0
LINE
10
418069.093
20
6498204.940
30
0.000
11
418069.071
21
6498204.928
31
0.000
8
0
6
XKITLINE00
62
7
0
LINE
10
418069.071
20
6498204.928
30
0.000
11
418069.050
21
6498204.917
31
0.000
8
0
6
XKITLINE00
62
7
0
LINE
10
418069.050
20
6498204.917
30
0.000
11
418069.028
21
6498204.906
31
0.000
8
0
6
XKITLINE00
62
7
0
LINE
10
418069.028
20
6498204.906
30
0.000
11
418069.006
21
6498204.896
31
0.000
8
0
6
XKITLINE00
62
7
0
LINE
10
418069.006
20
6498204.896
30
0.000
11
418068.983
21
6498204.886
31
0.000
8
0
6
XKITLINE00
62
7
0
LINE
10
418068.983
20
6498204.886
30
0.000
11
418068.960
21
6498204.877
31
0.000
8
0
6
XKITLINE00
62
7
0
LINE
10
418068.960
20
6498204.877
30
0.000
11
418068.937
21
6498204.868
31
0.000
8
0
6
XKITLINE00
62
7
0
LINE
10
418068.937
20
6498204.868
30
0.000
11
418068.914
21
6498204.860
31
0.000
8
0
6
XKITLINE00
62
7
0
LINE
10
418068.914
20
6498204.860
30
0.000
11
418068.891
21
6498204.852
31
0.000
8
0
6
XKITLINE00
62
7
0
LINE
10
418068.891
20
6498204.852
30
0.000
11
418068.867
21
6498204.845
31
0.000
8
0
6
XKITLINE00
62
7
0
LINE
10
418068.867
20
6498204.845
30
0.000
11
418068.844
21
6498204.839
31
0.000
8
0
6
XKITLINE00
62
7
0
LINE
10
418068.844
20
6498204.839
30
0.000
11
418068.820
21
6498204.833
31
0.000
8
0
6
XKITLINE00
62
7
0
LINE
10
418068.820
20
6498204.833
30
0.000
11
418068.796
21
6498204.828
31
0.000
8
0
6
XKITLINE00
62
7
0
LINE
10
418068.796
20
6498204.828
30
0.000
11
418068.772
21
6498204.823
31
0.000
8
0
6
XKITLINE00
62
7
0
LINE
10
418068.772
20
6498204.823
30
0.000
11
418068.748
21
6498204.819
31
0.000
8
0
6
XKITLINE00
62
7
0
LINE
10
418068.748
20
6498204.819
30
0.000
11
418068.723
21
6498204.815
31
0.000
8
0
6
XKITLINE00
62
7
0
LINE
10
418068.723
20
6498204.815
30
0.000
11
418068.699
21
6498204.812
31
0.000
8
0
6
XKITLINE00
62
7
0
LINE
10
418068.699
20
6498204.812
30
0.000
11
418068.674
21
6498204.810
31
0.000
8
0
6
XKITLINE00
62
7
0
LINE
10
418068.674
20
6498204.810
30
0.000
11
418068.650
21
6498204.808
31
0.000
8
0
6
XKITLINE00
62
7
0
LINE
10
418068.650
20
6498204.808
30
0.000
11
418068.625
21
6498204.807
31
0.000
8
0
6
XKITLINE00
62
7
0
LINE
10
418068.625
20
6498204.807
30
0.000
11
418068.601
21
6498204.807
31
0.000
8
0
6
XKITLINE00
62
7
0
LINE
10
418068.601
20
6498204.807
30
0.000
11
418068.576
21
6498204.807
31
0.000
8
0
6
XKITLINE00
62
7
0
LINE
10
418068.576
20
6498204.807
30
0.000
11
418068.552
21
6498204.808
31
0.000
8
0
6
XKITLINE00
62
7
0
LINE
10
418068.552
20
6498204.808
30
0.000
11
418068.527
21
6498204.809
31
0.000
8
0
6
XKITLINE00
62
7
0
LINE
10
418068.527
20
6498204.809
30
0.000
11
418068.503
21
6498204.811
31
0.000
8
0
6
XKITLINE00
62
7
0
LINE
10
418068.503
20
6498204.811
30
0.000
11
418068.478
21
6498204.814
31
0.000
8
0
6
XKITLINE00
62
7
0
LINE
10
418068.478
20
6498204.814
30
0.000
11
418068.454
21
6498204.817
31
0.000
8
0
6
XKITLINE00
62
7
0
LINE
10
418068.454
20
6498204.817
30
0.000
11
418068.430
21
6498204.820
31
0.000
8
0
6
XKITLINE00
62
7
0
LINE
10
418068.430
20
6498204.820
30
0.000
11
418068.406
21
6498204.825
31
0.000
8
0
6
XKITLINE00
62
7
0
LINE
10
418068.406
20
6498204.825
30
0.000
11
418068.382
21
6498204.830
31
0.000
8
0
6
XKITLINE00
62
7
0
LINE
10
418068.382
20
6498204.830
30
0.000
11
418068.358
21
6498204.835
31
0.000
8
0
6
XKITLINE00
62
7
0
LINE
10
418068.358
20
6498204.835
30
0.000
11
418068.334
21
6498204.841
31
0.000
8
0
6
XKITLINE00
62
7
0
LINE
10
418068.334
20
6498204.841
30
0.000
11
418068.310
21
6498204.848
31
0.000
8
0
6
XKITLINE00
62
7
0
LINE
10
418068.310
20
6498204.848
30
0.000
11
418068.287
21
6498204.855
31
0.000
8
0
6
XKITLINE00
62
7
0
LINE
10
418068.287
20
6498204.855
30
0.000
11
418068.264
21
6498204.863
31
0.000
8
0
6
XKITLINE00
62
7
0
LINE
10
418068.264
20
6498204.863
30
0.000
11
418068.241
21
6498204.871
31
0.000
8
0
6
XKITLINE00
62
7
0
LINE
10
418068.241
20
6498204.871
30
0.000
11
418068.218
21
6498204.880
31
0.000
8
0
6
XKITLINE00
62
7
0
LINE
10
418068.218
20
6498204.880
30
0.000
11
418068.195
21
6498204.890
31
0.000
8
0
6
XKITLINE00
62
7
0
LINE
10
418068.195
20
6498204.890
30
0.000
11
418068.173
21
6498204.900
31
0.000
8
0
6
XKITLINE00
62
7
0
LINE
10
418068.173
20
6498204.900
30
0.000
11
418068.151
21
6498204.910
31
0.000
8
0
6
XKITLINE00
62
7
0
LINE
10
418068.151
20
6498204.910
30
0.000
11
418068.129
21
6498204.922
31
0.000
8
0
6
XKITLINE00
62
7
0
LINE
10
418068.129
20
6498204.922
30
0.000
11
418068.107
21
6498204.933
31
0.000
8
0
6
XKITLINE00
62
7
0
LINE
10
418068.107
20
6498204.933
30
0.000
11
418068.086
21
6498204.945
31
0.000
8
0
6
XKITLINE00
62
7
0
LINE
10
418068.086
20
6498204.945
30
0.000
11
418068.065
21
6498204.958
31
0.000
8
0
6
XKITLINE00
62
7
0
LINE
10
418068.065
20
6498204.958
30
0.000
11
418068.044
21
6498204.971
31
0.000
8
0
6
XKITLINE00
62
7
0
LINE
10
418068.044
20
6498204.971
30
0.000
11
418068.024
21
6498204.985
31
0.000
8
0
6
XKITLINE00
62
7
0
LINE
10
418068.024
20
6498204.985
30
0.000
11
418068.004
21
6498204.999
31
0.000
8
0
6
XKITLINE00
62
7
0
LINE
10
418068.004
20
6498204.999
30
0.000
11
418067.984
21
6498205.014
31
0.000
8
0
6
XKITLINE00
62
7
0
LINE
10
418067.984
20
6498205.014
30
0.000
11
418067.965
21
6498205.029
31
0.000
8
0
6
XKITLINE00
62
7
0
LINE
10
418067.965
20
6498205.029
30
0.000
11
418067.946
21
6498205.045
31
0.000
8
0
6
XKITLINE00
62
7
0
LINE
10
418067.946
20
6498205.045
30
0.000
11
418067.928
21
6498205.061
31
0.000
8
0
6
XKITLINE00
62
7
0
LINE
10
418067.928
20
6498205.061
30
0.000
11
418067.909
21
6498205.078
31
0.000
8
0
6
XKITLINE00
62
7
0
LINE
10
418067.909
20
6498205.078
30
0.000
11
418067.892
21
6498205.095
31
0.000
8
0
6
XKITLINE00
62
7
0
LINE
10
418067.892
20
6498205.095
30
0.000
11
418067.874
21
6498205.112
31
0.000
8
0
6
XKITLINE00
62
7
0
LINE
10
418067.874
20
6498205.112
30
0.000
11
418067.858
21
6498205.130
31
0.000
8
0
6
XKITLINE00
62
7
0
LINE
10
418067.858
20
6498205.130
30
0.000
11
418067.841
21
6498205.148
31
0.000
8
0
6
XKITLINE00
62
7
0
LINE
10
418067.841
20
6498205.148
30
0.000
11
418067.825
21
6498205.167
31
0.000
8
0
6
XKITLINE00
62
7
0
LINE
10
418067.825
20
6498205.167
30
0.000
11
418067.810
21
6498205.186
31
0.000
8
0
6
XKITLINE00
62
7
0
LINE
10
418067.810
20
6498205.186
30
0.000
11
418067.795
21
6498205.205
31
0.000
8
0
6
XKITLINE00
62
7
0
LINE
10
418067.795
20
6498205.205
30
0.000
11
418067.780
21
6498205.225
31
0.000
8
0
6
XKITLINE00
62
7
0
LINE
10
418067.780
20
6498205.225
30
0.000
11
418067.766
21
6498205.245
31
0.000
8
0
6
XKITLINE00
62
7
0
LINE
10
418067.766
20
6498205.245
30
0.000
11
418067.753
21
6498205.266
31
0.000
8
0
6
XKITLINE00
62
7
0
LINE
10
418067.753
20
6498205.266
30
0.000
11
418067.740
21
6498205.287
31
0.000
8
0
6
XKITLINE00
62
7
0
LINE
10
418067.740
20
6498205.287
30
0.000
11
418067.727
21
6498205.308
31
0.000
8
0
6
XKITLINE00
62
7
0
LINE
10
418067.727
20
6498205.308
30
0.000
11
418067.715
21
6498205.329
31
0.000
8
0
6
XKITLINE00
62
7
0
LINE
10
418067.715
20
6498205.329
30
0.000
11
418067.704
21
6498205.351
31
0.000
8
0
6
XKITLINE00
62
7
0
LINE
10
418067.704
20
6498205.351
30
0.000
11
418067.693
21
6498205.373
31
0.000
8
0
6
XKITLINE00
62
7
0
LINE
10
418067.693
20
6498205.373
30
0.000
11
418067.682
21
6498205.395
31
0.000
8
0
6
XKITLINE00
62
7
0
LINE
10
418067.682
20
6498205.395
30
0.000
11
418067.673
21
6498205.418
31
0.000
8
0
6
XKITLINE00
62
7
0
LINE
10
418067.673
20
6498205.418
30
0.000
11
418067.663
21
6498205.440
31
0.000
8
0
6
XKITLINE00
62
7
0
LINE
10
418067.663
20
6498205.440
30
0.000
11
418067.655
21
6498205.463
31
0.000
8
0
6
XKITLINE00
62
7
0
LINE
10
418067.655
20
6498205.463
30
0.000
11
418067.646
21
6498205.486
31
0.000
8
0
6
XKITLINE00
62
7
0
LINE
10
418067.646
20
6498205.486
30
0.000
11
418067.639
21
6498205.510
31
0.000
8
0
6
XKITLINE00
62
7
0
LINE
10
418067.639
20
6498205.510
30
0.000
11
418067.632
21
6498205.533
31
0.000
8
0
6
XKITLINE00
62
7
0
LINE
10
418067.632
20
6498205.533
30
0.000
11
418067.625
21
6498205.557
31
0.000
8
0
6
XKITLINE00
62
7
0
LINE
10
418067.625
20
6498205.557
30
0.000
11
418067.620
21
6498205.581
31
0.000
8
0
6
XKITLINE00
62
7
0
LINE
10
418067.620
20
6498205.581
30
0.000
11
418067.614
21
6498205.605
31
0.000
8
0
6
XKITLINE00
62
7
0
LINE
10
418067.614
20
6498205.605
30
0.000
11
418067.610
21
6498205.629
31
0.000
8
0
6
XKITLINE00
62
7
0
LINE
10
418067.610
20
6498205.629
30
0.000
11
418067.606
21
6498205.653
31
0.000
8
0
6
XKITLINE00
62
7
0
LINE
10
418067.606
20
6498205.653
30
0.000
11
418067.602
21
6498205.677
31
0.000
8
0
6
XKITLINE00
62
7
0
LINE
10
418067.602
20
6498205.677
30
0.000
11
418067.599
21
6498205.702
31
0.000
8
0
6
XKITLINE00
62
7
0
LINE
10
418067.599
20
6498205.702
30
0.000
11
418067.597
21
6498205.726
31
0.000
8
0
6
XKITLINE00
62
7
0
LINE
10
418067.597
20
6498205.726
30
0.000
11
418067.595
21
6498205.751
31
0.000
8
0
6
XKITLINE00
62
7
0
LINE
10
418067.595
20
6498205.751
30
0.000
11
418067.594
21
6498205.775
31
0.000
8
0
6
XKITLINE00
62
7
0
LINE
10
418067.594
20
6498205.775
30
0.000
11
418067.594
21
6498205.800
31
0.000
8
0
6
XKITLINE00
62
7
0
LINE
10
418067.594
20
6498205.800
30
0.000
11
418067.594
21
6498205.824
31
0.000
8
0
6
XKITLINE00
62
7
0
LINE
10
418067.594
20
6498205.824
30
0.000
11
418067.595
21
6498205.849
31
0.000
8
0
6
XKITLINE00
62
7
0
LINE
10
418067.595
20
6498205.849
30
0.000
11
418067.596
21
6498205.873
31
0.000
8
0
6
XKITLINE00
62
7
0
LINE
10
418067.596
20
6498205.873
30
0.000
11
418067.598
21
6498205.898
31
0.000
8
0
6
XKITLINE00
62
7
0
LINE
10
418067.598
20
6498205.898
30
0.000
11
418067.600
21
6498205.922
31
0.000
8
0
6
XKITLINE00
62
7
0
LINE
10
418067.600
20
6498205.922
30
0.000
11
418067.603
21
6498205.946
31
0.000
8
0
6
XKITLINE00
62
7
0
LINE
10
418067.603
20
6498205.946
30
0.000
11
418067.607
21
6498205.971
31
0.000
8
0
6
XKITLINE00
62
7
0
LINE
10
418067.607
20
6498205.971
30
0.000
11
418067.611
21
6498205.995
31
0.000
8
0
6
XKITLINE00
62
7
0
LINE
10
418067.611
20
6498205.995
30
0.000
11
418067.616
21
6498206.019
31
0.000
8
0
6
XKITLINE00
62
7
0
LINE
10
418067.616
20
6498206.019
30
0.000
11
418067.622
21
6498206.043
31
0.000
8
0
6
XKITLINE00
62
7
0
LINE
10
418067.622
20
6498206.043
30
0.000
11
418067.628
21
6498206.067
31
0.000
8
0
6
XKITLINE00
62
7
0
LINE
10
418067.628
20
6498206.067
30
0.000
11
418067.635
21
6498206.090
31
0.000
8
0
6
XKITLINE00
62
7
0
LINE
10
418067.635
20
6498206.090
30
0.000
11
418067.642
21
6498206.114
31
0.000
8
0
6
XKITLINE00
62
7
0
LINE
10
418067.642
20
6498206.114
30
0.000
11
418067.650
21
6498206.137
31
0.000
8
0
6
XKITLINE00
62
7
0
LINE
10
418067.650
20
6498206.137
30
0.000
11
418067.658
21
6498206.160
31
0.000
8
0
6
XKITLINE00
62
7
0
LINE
10
418067.658
20
6498206.160
30
0.000
11
418067.667
21
6498206.183
31
0.000
8
0
6
XKITLINE00
62
7
0
LINE
10
418067.667
20
6498206.183
30
0.000
11
418067.677
21
6498206.205
31
0.000
8
0
6
XKITLINE00
62
7
0
LINE
10
418067.677
20
6498206.205
30
0.000
11
418067.687
21
6498206.228
31
0.000
8
0
6
XKITLINE00
62
7
0
LINE
10
418067.687
20
6498206.228
30
0.000
11
418067.697
21
6498206.250
31
0.000
8
0
6
XKITLINE00
62
7
0
LINE
10
418067.697
20
6498206.250
30
0.000
11
418067.708
21
6498206.272
31
0.000
8
0
6
XKITLINE00
62
7
0
LINE
10
418067.708
20
6498206.272
30
0.000
11
418067.720
21
6498206.293
31
0.000
8
0
6
XKITLINE00
62
7
0
LINE
10
418067.720
20
6498206.293
30
0.000
11
418067.732
21
6498206.315
31
0.000
8
0
6
XKITLINE00
62
7
0
LINE
10
418067.732
20
6498206.315
30
0.000
11
418067.745
21
6498206.336
31
0.000
8
0
6
XKITLINE00
62
7
0
LINE
10
418067.745
20
6498206.336
30
0.000
11
418067.758
21
6498206.356
31
0.000
8
0
6
XKITLINE00
62
7
0
LINE
10
418067.758
20
6498206.356
30
0.000
11
418067.772
21
6498206.377
31
0.000
8
0
6
XKITLINE00
62
7
0
LINE
10
418067.772
20
6498206.377
30
0.000
11
418067.786
21
6498206.397
31
0.000
8
0
6
XKITLINE00
62
7
0
LINE
10
418067.786
20
6498206.397
30
0.000
11
418067.801
21
6498206.416
31
0.000
8
0
6
XKITLINE00
62
7
0
LINE
10
418067.801
20
6498206.416
30
0.000
11
418067.816
21
6498206.436
31
0.000
8
0
6
XKITLINE00
62
7
0
LINE
10
418067.816
20
6498206.436
30
0.000
11
418067.832
21
6498206.455
31
0.000
8
0
6
XKITLINE00
62
7
0
LINE
10
418067.832
20
6498206.455
30
0.000
11
418067.848
21
6498206.473
31
0.000
8
0
6
XKITLINE00
62
7
0
LINE
10
418067.848
20
6498206.473
30
0.000
11
418067.848
21
6498206.473
31
0.000
8
0
6
XKITLINE00
62
7
0
LINE
10
418067.946
20
6498205.045
30
0.000
11
418063.412
21
6498199.711
31
0.000
8
0
6
XKITLINE02
62
7
0
LINE
10
418161.191
20
6498285.340
30
0.000
11
418161.969
21
6498288.237
31
0.000
8
0
6
XKITLINE00
62
3
0
LINE
10
418159.137
20
6498290.032
30
0.000
11
418165.318
21
6498288.374
31
0.000
8
0
6
XKITLINE00
62
3
0
LINE
10
418165.318
20
6498288.374
30
0.000
11
418165.059
21
6498287.408
31
0.000
8
0
6
XKITLINE00
62
3
0
LINE
10
418165.059
20
6498287.408
30
0.000
11
418158.878
21
6498289.066
31
0.000
8
0
6
XKITLINE00
62
3
0
LINE
10
418158.878
20
6498289.066
30
0.000
11
418159.137
21
6498290.032
31
0.000
8
0
6
XKITLINE00
62
3
0
LINE
10
418159.137
20
6498290.032
30
0.000
11
418159.137
21
6498290.032
31
0.000
8
0
6
XKITLINE00
62
3
0
LINE
10
418157.816
20
6498266.277
30
0.000
11
418158.691
21
6498269.147
31
0.000
8
0
6
XKITLINE00
62
3
0
LINE
10
418155.921
20
6498271.036
30
0.000
11
418162.044
21
6498269.171
31
0.000
8
0
6
XKITLINE00
62
3
0
LINE
10
418162.044
20
6498269.171
30
0.000
11
418161.752
21
6498268.214
31
0.000
8
0
6
XKITLINE00
62
3
0
LINE
10
418161.752
20
6498268.214
30
0.000
11
418155.630
21
6498270.080
31
0.000
8
0
6
XKITLINE00
62
3
0
LINE
10
418155.630
20
6498270.080
30
0.000
11
418155.921
21
6498271.036
31
0.000
8
0
6
XKITLINE00
62
3
0
LINE
10
418155.921
20
6498271.036
30
0.000
11
418155.921
21
6498271.036
31
0.000
8
0
6
XKITLINE00
62
3
0
LINE
10
418157.793
20
6498266.012
30
0.000
11
418160.793
21
6498266.012
31
0.000
8
0
6
XKITLINE00
62
3
0
LINE
10
418161.793
20
6498269.212
30
0.000
11
418161.793
21
6498262.812
31
0.000
8
0
6
XKITLINE00
62
3
0
LINE
10
418161.793
20
6498262.812
30
0.000
11
418160.793
21
6498262.812
31
0.000
8
0
6
XKITLINE00
62
3
0
LINE
10
418160.793
20
6498262.812
30
0.000
11
418160.793
21
6498269.212
31
0.000
8
0
6
XKITLINE00
62
3
0
LINE
10
418160.793
20
6498269.212
30
0.000
11
418161.793
21
6498269.212
31
0.000
8
0
6
XKITLINE00
62
3
0
LINE
10
418161.793
20
6498269.212
30
0.000
11
418161.793
21
6498269.212
31
0.000
8
0
6
XKITLINE00
62
3
0
LINE
10
418160.013
20
6498283.254
30
0.000
11
418159.102
21
6498284.805
31
0.000
8
0
6
XKITLINE00
62
3
0
LINE
10
418159.102
20
6498284.805
30
0.000
11
418162.205
21
6498286.629
31
0.000
8
0
6
XKITLINE00
62
3
0
LINE
10
418162.205
20
6498286.629
30
0.000
11
418163.117
21
6498285.077
31
0.000
8
0
6
XKITLINE00
62
3
0
LINE
10
418163.117
20
6498285.077
30
0.000
11
418160.013
21
6498283.254
31
0.000
8
0
6
XKITLINE00
62
3
0
LINE
10
418160.013
20
6498283.254
30
0.000
11
418162.205
21
6498286.629
31
0.000
8
0
6
XKITLINE00
62
3
0
LINE
10
418161.565
20
6498284.165
30
0.000
11
418162.661
21
6498285.853
31
0.000
8
0
6
XKITLINE00
62
3
0
LINE
10
418156.553
20
6498270.791
30
0.000
11
418157.861
21
6498269.554
31
0.000
8
0
6
XKITLINE00
62
1
0
LINE
10
418157.861
20
6498269.554
30
0.000
11
418154.150
21
6498265.631
31
0.000
8
0
6
XKITLINE00
62
1
0
LINE
10
418154.150
20
6498265.631
30
0.000
11
418152.842
21
6498266.868
31
0.000
8
0
6
XKITLINE00
62
1
0
LINE
10
418152.842
20
6498266.868
30
0.000
11
418156.553
21
6498270.791
31
0.000
8
0
6
XKITLINE00
62
1
0
LINE
10
418154.079
20
6498268.176
30
0.000
11
418155.387
21
6498266.939
31
0.000
8
0
6
XKITLINE00
62
1
0
LINE
10
418155.316
20
6498269.483
30
0.000
11
418156.624
21
6498268.246
31
0.000
8
0
6
XKITLINE00
62
1
0
LINE
10
418156.549
20
6498267.905
30
0.000
11
418158.349
21
6498267.905
31
0.000
8
0
6
XKITLINE00
62
3
0
LINE
10
418158.349
20
6498267.905
30
0.000
11
418158.349
21
6498264.305
31
0.000
8
0
6
XKITLINE00
62
3
0
LINE
10
418158.349
20
6498264.305
30
0.000
11
418156.549
21
6498264.305
31
0.000
8
0
6
XKITLINE00
62
3
0
LINE
10
418156.549
20
6498264.305
30
0.000
11
418156.549
21
6498267.905
31
0.000
8
0
6
XKITLINE00
62
3
0
LINE
10
418156.549
20
6498267.905
30
0.000
11
418158.349
21
6498264.305
31
0.000
8
0
6
XKITLINE00
62
3
0
LINE
10
418155.517
20
6498268.181
30
0.000
11
418155.529
21
6498268.181
31
0.000
8
0
6
XKITLINE00
62
3
0
LINE
10
418155.529
20
6498268.181
30
0.000
11
418155.529
21
6498268.199
31
0.000
8
0
6
XKITLINE00
62
3
0
LINE
10
418155.529
20
6498268.199
30
0.000
11
418155.517
21
6498268.199
31
0.000
8
0
6
XKITLINE00
62
3
0
LINE
10
418155.517
20
6498268.199
30
0.000
11
418155.517
21
6498268.181
31
0.000
8
0
6
XKITLINE00
62
3
0
CIRCLE
10
418155.523
20
6498268.190
30
0.000
40
0.003
8
0
6
XKITLINE00
62
3
0
LINE
10
418155.523
20
6498268.181
30
0.000
11
418155.523
21
6498268.172
31
0.000
8
0
6
XKITLINE00
62
7
0
LINE
10
418155.523
20
6498268.199
30
0.000
11
418155.523
21
6498268.211
31
0.000
8
0
6
XKITLINE00
62
7
0
LINE
10
418155.260
20
6498268.181
30
0.000
11
418155.272
21
6498268.181
31
0.000
8
0
6
XKITLINE00
62
3
0
LINE
10
418155.272
20
6498268.181
30
0.000
11
418155.272
21
6498268.199
31
0.000
8
0
6
XKITLINE00
62
3
0
LINE
10
418155.272
20
6498268.199
30
0.000
11
418155.260
21
6498268.199
31
0.000
8
0
6
XKITLINE00
62
3
0
LINE
10
418155.260
20
6498268.199
30
0.000
11
418155.260
21
6498268.181
31
0.000
8
0
6
XKITLINE00
62
3
0
CIRCLE
10
418155.266
20
6498268.190
30
0.000
40
0.003
8
0
6
XKITLINE00
62
3
0
LINE
10
418155.266
20
6498268.181
30
0.000
11
418155.266
21
6498268.172
31
0.000
8
0
6
XKITLINE00
62
7
0
LINE
10
418155.266
20
6498268.199
30
0.000
11
418155.266
21
6498268.211
31
0.000
8
0
6
XKITLINE00
62
7
0
LINE
10
418155.352
20
6498268.168
30
0.000
11
418155.352
21
6498268.176
31
0.000
8
0
6
XKITLINE00
62
7
0
LINE
10
418155.340
20
6498268.200
30
0.000
11
418155.352
21
6498268.176
31
0.000
8
0
6
XKITLINE00
62
7
0
CIRCLE
10
418155.352
20
6498268.200
30
0.000
40
0.002
8
0
6
XKITLINE00
62
7
0
LINE
10
418155.352
20
6498268.210
30
0.000
11
418155.352
21
6498268.202
31
0.000
8
0
6
XKITLINE00
62
7
0
LINE
10
418155.346
20
6498268.206
30
0.000
11
418155.358
21
6498268.206
31
0.000
8
0
6
XKITLINE00
62
7
0
LINE
10
418155.346
20
6498268.181
30
0.000
11
418155.351
21
6498268.184
31
0.000
8
0
6
XKITLINE00
62
7
0
LINE
10
418155.351
20
6498268.184
30
0.000
11
418155.346
21
6498268.194
31
0.000
8
0
6
XKITLINE00
62
7
0
LINE
10
418155.346
20
6498268.194
30
0.000
11
418155.340
21
6498268.192
31
0.000
8
0
6
XKITLINE00
62
7
0
LINE
10
418155.340
20
6498268.192
30
0.000
11
418155.346
21
6498268.181
31
0.000
8
0
6
XKITLINE00
62
7
0
LINE
10
418155.438
20
6498268.168
30
0.000
11
418155.437
21
6498268.176
31
0.000
8
0
6
XKITLINE00
62
7
0
LINE
10
418155.425
20
6498268.200
30
0.000
11
418155.437
21
6498268.176
31
0.000
8
0
6
XKITLINE00
62
7
0
CIRCLE
10
418155.437
20
6498268.200
30
0.000
40
0.002
8
0
6
XKITLINE00
62
7
0
LINE
10
418155.437
20
6498268.210
30
0.000
11
418155.437
21
6498268.202
31
0.000
8
0
6
XKITLINE00
62
7
0
LINE
10
418155.431
20
6498268.206
30
0.000
11
418155.443
21
6498268.206
31
0.000
8
0
6
XKITLINE00
62
7
0
LINE
10
418155.432
20
6498268.181
30
0.000
11
418155.437
21
6498268.184
31
0.000
8
0
6
XKITLINE00
62
7
0
LINE
10
418155.437
20
6498268.184
30
0.000
11
418155.432
21
6498268.194
31
0.000
8
0
6
XKITLINE00
62
7
0
LINE
10
418155.432
20
6498268.194
30
0.000
11
418155.426
21
6498268.192
31
0.000
8
0
6
XKITLINE00
62
7
0
LINE
10
418155.426
20
6498268.192
30
0.000
11
418155.432
21
6498268.181
31
0.000
8
0
6
XKITLINE00
62
7
0
LINE
10
418161.109
20
6498284.941
30
0.000
11
418161.107
21
6498284.934
31
0.000
8
0
6
XKITLINE00
62
7
0
LINE
10
418161.110
20
6498284.907
30
0.000
11
418161.107
21
6498284.934
31
0.000
8
0
6
XKITLINE00
62
7
0
CIRCLE
10
418161.099
20
6498284.911
30
0.000
40
0.002
8
0
6
XKITLINE00
62
7
0
LINE
10
418161.096
20
6498284.902
30
0.000
11
418161.098
21
6498284.909
31
0.000
8
0
6
XKITLINE00
62
7
0
LINE
10
418161.103
20
6498284.904
30
0.000
11
418161.091
21
6498284.907
31
0.000
8
0
6
XKITLINE00
62
7
0
LINE
10
418157.448
20
6498266.106
30
0.000
11
418157.448
21
6498266.104
31
0.000
8
0
6
XKITLINE00
62
3
0
LINE
10
418157.448
20
6498266.104
30
0.000
11
418157.446
21
6498266.104
31
0.000
8
0
6
XKITLINE00
62
3
0
LINE
10
418157.445
20
6498266.105
30
0.000
11
418157.448
21
6498266.106
31
0.000
8
0
6
XKITLINE00
62
3
0
LINE
10
418157.446
20
6498266.104
30
0.000
11
418157.445
21
6498266.105
31
0.000
8
0
6
XKITLINE00
62
3
0
LINE
10
418157.448
20
6498266.104
30
0.000
11
418157.447
21
6498266.106
31
0.000
8
0
6
XKITLINE00
62
3
0
LINE
10
418157.447
20
6498266.104
30
0.000
11
418157.446
21
6498266.106
31
0.000
8
0
6
XKITLINE00
62
3
0
LINE
10
418157.447
20
6498266.104
30
0.000
11
418157.446
21
6498266.105
31
0.000
8
0
6
XKITLINE00
62
3
0
LINE
10
418155.260
20
6498268.172
30
0.000
11
418155.272
21
6498268.172
31
0.000
8
0
6
XKITLINE00
62
7
0
LINE
10
418155.272
20
6498268.172
30
0.000
11
418155.266
21
6498268.160
31
0.000
8
0
6
XKITLINE00
62
7
0
LINE
10
418155.266
20
6498268.160
30
0.000
11
418155.260
21
6498268.172
31
0.000
8
0
6
XKITLINE00
62
7
0
LINE
10
418155.346
20
6498268.168
30
0.000
11
418155.358
21
6498268.168
31
0.000
8
0
6
XKITLINE00
62
7
0
LINE
10
418155.358
20
6498268.168
30
0.000
11
418155.352
21
6498268.156
31
0.000
8
0
6
XKITLINE00
62
7
0
LINE
10
418155.352
20
6498268.156
30
0.000
11
418155.346
21
6498268.168
31
0.000
8
0
6
XKITLINE00
62
7
0
LINE
10
418155.517
20
6498268.172
30
0.000
11
418155.529
21
6498268.172
31
0.000
8
0
6
XKITLINE00
62
7
0
LINE
10
418155.529
20
6498268.172
30
0.000
11
418155.523
21
6498268.160
31
0.000
8
0
6
XKITLINE00
62
7
0
LINE
10
418155.523
20
6498268.160
30
0.000
11
418155.517
21
6498268.172
31
0.000
8
0
6
XKITLINE00
62
7
0
LINE
10
418155.431
20
6498268.168
30
0.000
11
418155.444
21
6498268.168
31
0.000
8
0
6
XKITLINE00
62
7
0
LINE
10
418155.444
20
6498268.168
30
0.000
11
418155.438
21
6498268.156
31
0.000
8
0
6
XKITLINE00
62
7
0
LINE
10
418155.438
20
6498268.156
30
0.000
11
418155.431
21
6498268.168
31
0.000
8
0
6
XKITLINE00
62
7
0
CIRCLE
10
418155.016
20
6498267.328
30
0.000
40
2.030
8
0
6
XKITLINE00
62
7
0
LINE
10
418161.109
20
6498284.941
30
0.000
11
418160.562
21
6498285.267
31
0.000
8
0
6
XKITLINE00
62
7
0
LINE
10
418159.466
20
6498285.919
30
0.000
11
418157.275
21
6498287.222
31
0.000
8
0
6
XKITLINE00
62
7
0
LINE
10
418158.253
20
6498288.866
30
0.000
11
418156.298
21
6498285.579
31
0.000
8
0
6
XKITLINE00
62
7
0
LINE
10
418160.014
20
6498285.593
30
0.000
11
418160.562
21
6498285.267
31
0.000
8
0
6
XKITLINE00
62
7
0
LINE
10
418155.410
20
6498289.073
30
0.000
11
418154.758
21
6498287.978
31
0.000
8
0
6
XKITLINE00
62
7
0
LINE
10
418159.466
20
6498285.919
30
0.000
11
418160.014
21
6498285.593
31
0.000
8
0
6
XKITLINE00
62
7
0
LINE
10
418156.831
20
6498288.969
30
0.000
11
418155.528
21
6498286.778
31
0.000
8
0
6
XKITLINE00
62
7
0
LINE
10
418155.016
20
6498267.328
30
0.000
11
418154.383
21
6498267.249
31
0.000
8
0
6
XKITLINE00
62
7
0
LINE
10
418153.118
20
6498267.091
30
0.000
11
418150.589
21
6498266.775
31
0.000
8
0
6
XKITLINE00
62
7
0
LINE
10
418150.352
20
6498268.672
30
0.000
11
418150.826
21
6498264.878
31
0.000
8
0
6
XKITLINE00
62
7
0
LINE
10
418153.751
20
6498267.170
30
0.000
11
418154.383
21
6498267.249
31
0.000
8
0
6
XKITLINE00
62
7
0
LINE
10
418147.980
20
6498267.091
30
0.000
11
418148.138
21
6498265.826
31
0.000
8
0
6
XKITLINE00
62
7
0
LINE
10
418153.118
20
6498267.091
30
0.000
11
418153.751
21
6498267.170
31
0.000
8
0
6
XKITLINE00
62
7
0
LINE
10
418149.166
20
6498267.882
30
0.000
11
418149.482
21
6498265.352
31
0.000
8
0
6
XKITLINE00
62
7
0
LINE
10
418161.291
20
6498275.209
30
0.000
11
418161.308
21
6498275.226
31
0.000
8
0
6
XKITLINE00
62
7
0
LINE
10
418161.308
20
6498275.226
30
0.000
11
418161.327
21
6498275.243
31
0.000
8
0
6
XKITLINE00
62
7
0
LINE
10
418161.327
20
6498275.243
30
0.000
11
418161.345
21
6498275.259
31
0.000
8
0
6
XKITLINE00
62
7
0
LINE
10
418161.345
20
6498275.259
30
0.000
11
418161.364
21
6498275.275
31
0.000
8
0
6
XKITLINE00
62
7
0
LINE
10
418161.364
20
6498275.275
30
0.000
11
418161.383
21
6498275.290
31
0.000
8
0
6
XKITLINE00
62
7
0
LINE
10
418161.383
20
6498275.290
30
0.000
11
418161.403
21
6498275.304
31
0.000
8
0
6
XKITLINE00
62
7
0
LINE
10
418161.403
20
6498275.304
30
0.000
11
418161.423
21
6498275.318
31
0.000
8
0
6
XKITLINE00
62
7
0
LINE
10
418161.423
20
6498275.318
30
0.000
11
418161.444
21
6498275.332
31
0.000
8
0
6
XKITLINE00
62
7
0
LINE
10
418161.444
20
6498275.332
30
0.000
11
418161.464
21
6498275.345
31
0.000
8
0
6
XKITLINE00
62
7
0
LINE
10
418161.464
20
6498275.345
30
0.000
11
418161.485
21
6498275.358
31
0.000
8
0
6
XKITLINE00
62
7
0
LINE
10
418161.485
20
6498275.358
30
0.000
11
418161.507
21
6498275.370
31
0.000
8
0
6
XKITLINE00
62
7
0
LINE
10
418161.507
20
6498275.370
30
0.000
11
418161.528
21
6498275.382
31
0.000
8
0
6
XKITLINE00
62
7
0
LINE
10
418161.528
20
6498275.382
30
0.000
11
418161.550
21
6498275.393
31
0.000
8
0
6
XKITLINE00
62
7
0
LINE
10
418161.550
20
6498275.393
30
0.000
11
418161.572
21
6498275.403
31
0.000
8
0
6
XKITLINE00
62
7
0
LINE
10
418161.572
20
6498275.403
30
0.000
11
418161.595
21
6498275.413
31
0.000
8
0
6
XKITLINE00
62
7
0
LINE
10
418161.595
20
6498275.413
30
0.000
11
418161.617
21
6498275.423
31
0.000
8
0
6
XKITLINE00
62
7
0
LINE
10
418161.617
20
6498275.423
30
0.000
11
418161.640
21
6498275.431
31
0.000
8
0
6
XKITLINE00
62
7
0
LINE
10
418161.640
20
6498275.431
30
0.000
11
418161.663
21
6498275.440
31
0.000
8
0
6
XKITLINE00
62
7
0
LINE
10
418161.663
20
6498275.440
30
0.000
11
418161.687
21
6498275.448
31
0.000
8
0
6
XKITLINE00
62
7
0
LINE
10
418161.687
20
6498275.448
30
0.000
11
418161.710
21
6498275.455
31
0.000
8
0
6
XKITLINE00
62
7
0
LINE
10
418161.710
20
6498275.455
30
0.000
11
418161.734
21
6498275.461
31
0.000
8
0
6
XKITLINE00
62
7
0
LINE
10
418161.734
20
6498275.461
30
0.000
11
418161.758
21
6498275.467
31
0.000
8
0
6
XKITLINE00
62
7
0
LINE
10
418161.758
20
6498275.467
30
0.000
11
418161.782
21
6498275.473
31
0.000
8
0
6
XKITLINE00
62
7
0
LINE
10
418161.782
20
6498275.473
30
0.000
11
418161.806
21
6498275.477
31
0.000
8
0
6
XKITLINE00
62
7
0
LINE
10
418161.806
20
6498275.477
30
0.000
11
418161.830
21
6498275.482
31
0.000
8
0
6
XKITLINE00
62
7
0
LINE
10
418161.830
20
6498275.482
30
0.000
11
418161.854
21
6498275.485
31
0.000
8
0
6
XKITLINE00
62
7
0
LINE
10
418161.854
20
6498275.485
30
0.000
11
418161.878
21
6498275.488
31
0.000
8
0
6
XKITLINE00
62
7
0
LINE
10
418161.878
20
6498275.488
30
0.000
11
418161.903
21
6498275.491
31
0.000
8
0
6
XKITLINE00
62
7
0
LINE
10
418161.903
20
6498275.491
30
0.000
11
418161.927
21
6498275.493
31
0.000
8
0
6
XKITLINE00
62
7
0
LINE
10
418161.927
20
6498275.493
30
0.000
11
418161.952
21
6498275.494
31
0.000
8
0
6
XKITLINE00
62
7
0
LINE
10
418161.952
20
6498275.494
30
0.000
11
418161.976
21
6498275.495
31
0.000
8
0
6
XKITLINE00
62
7
0
LINE
10
418161.976
20
6498275.495
30
0.000
11
418162.001
21
6498275.495
31
0.000
8
0
6
XKITLINE00
62
7
0
LINE
10
418162.001
20
6498275.495
30
0.000
11
418162.025
21
6498275.494
31
0.000
8
0
6
XKITLINE00
62
7
0
LINE
10
418162.025
20
6498275.494
30
0.000
11
418162.050
21
6498275.493
31
0.000
8
0
6
XKITLINE00
62
7
0
LINE
10
418162.050
20
6498275.493
30
0.000
11
418162.074
21
6498275.491
31
0.000
8
0
6
XKITLINE00
62
7
0
LINE
10
418162.074
20
6498275.491
30
0.000
11
418162.099
21
6498275.489
31
0.000
8
0
6
XKITLINE00
62
7
0
LINE
10
418162.099
20
6498275.489
30
0.000
11
418162.123
21
6498275.486
31
0.000
8
0
6
XKITLINE00
62
7
0
LINE
10
418162.123
20
6498275.486
30
0.000
11
418162.148
21
6498275.482
31
0.000
8
0
6
XKITLINE00
62
7
0
LINE
10
418162.148
20
6498275.482
30
0.000
11
418162.172
21
6498275.478
31
0.000
8
0
6
XKITLINE00
62
7
0
LINE
10
418162.172
20
6498275.478
30
0.000
11
418162.196
21
6498275.473
31
0.000
8
0
6
XKITLINE00
62
7
0
LINE
10
418162.196
20
6498275.473
30
0.000
11
418162.220
21
6498275.468
31
0.000
8
0
6
XKITLINE00
62
7
0
LINE
10
418162.220
20
6498275.468
30
0.000
11
418162.244
21
6498275.462
31
0.000
8
0
6
XKITLINE00
62
7
0
LINE
10
418162.244
20
6498275.462
30
0.000
11
418162.267
21
6498275.455
31
0.000
8
0
6
XKITLINE00
62
7
0
LINE
10
418162.267
20
6498275.455
30
0.000
11
418162.291
21
6498275.448
31
0.000
8
0
6
XKITLINE00
62
7
0
LINE
10
418162.291
20
6498275.448
30
0.000
11
418162.314
21
6498275.441
31
0.000
8
0
6
XKITLINE00
62
7
0
LINE
10
418162.314
20
6498275.441
30
0.000
11
418162.337
21
6498275.432
31
0.000
8
0
6
XKITLINE00
62
7
0
LINE
10
418162.337
20
6498275.432
30
0.000
11
418162.360
21
6498275.424
31
0.000
8
0
6
XKITLINE00
62
7
0
LINE
10
418162.360
20
6498275.424
30
0.000
11
418162.383
21
6498275.414
31
0.000
8
0
6
XKITLINE00
62
7
0
LINE
10
418162.383
20
6498275.414
30
0.000
11
418162.405
21
6498275.404
31
0.000
8
0
6
XKITLINE00
62
7
0
LINE
10
418162.405
20
6498275.404
30
0.000
11
418162.427
21
6498275.394
31
0.000
8
0
6
XKITLINE00
62
7
0
LINE
10
418162.427
20
6498275.394
30
0.000
11
418162.449
21
6498275.383
31
0.000
8
0
6
XKITLINE00
62
7
0
LINE
10
418162.449
20
6498275.383
30
0.000
11
418162.471
21
6498275.371
31
0.000
8
0
6
XKITLINE00
62
7
0
LINE
10
418162.471
20
6498275.371
30
0.000
11
418162.492
21
6498275.359
31
0.000
8
0
6
XKITLINE00
62
7
0
LINE
10
418162.492
20
6498275.359
30
0.000
11
418162.513
21
6498275.347
31
0.000
8
0
6
XKITLINE00
62
7
0
LINE
10
418162.513
20
6498275.347
30
0.000
11
418162.534
21
6498275.334
31
0.000
8
0
6
XKITLINE00
62
7
0
LINE
10
418162.534
20
6498275.334
30
0.000
11
418162.555
21
6498275.320
31
0.000
8
0
6
XKITLINE00
62
7
0
LINE
10
418162.555
20
6498275.320
30
0.000
11
418162.575
21
6498275.306
31
0.000
8
0
6
XKITLINE00
62
7
0
LINE
10
418162.575
20
6498275.306
30
0.000
11
418162.594
21
6498275.291
31
0.000
8
0
6
XKITLINE00
62
7
0
LINE
10
418162.594
20
6498275.291
30
0.000
11
418162.614
21
6498275.276
31
0.000
8
0
6
XKITLINE00
62
7
0
LINE
10
418162.614
20
6498275.276
30
0.000
11
418162.633
21
6498275.261
31
0.000
8
0
6
XKITLINE00
62
7
0
LINE
10
418162.633
20
6498275.261
30
0.000
11
418162.651
21
6498275.245
31
0.000
8
0
6
XKITLINE00
62
7
0
LINE
10
418162.651
20
6498275.245
30
0.000
11
418162.670
21
6498275.228
31
0.000
8
0
6
XKITLINE00
62
7
0
LINE
10
418162.670
20
6498275.228
30
0.000
11
418162.687
21
6498275.211
31
0.000
8
0
6
XKITLINE00
62
7
0
LINE
10
418162.687
20
6498275.211
30
0.000
11
418162.705
21
6498275.194
31
0.000
8
0
6
XKITLINE00
62
7
0
LINE
10
418162.705
20
6498275.194
30
0.000
11
418162.722
21
6498275.176
31
0.000
8
0
6
XKITLINE00
62
7
0
LINE
10
418162.722
20
6498275.176
30
0.000
11
418162.738
21
6498275.158
31
0.000
8
0
6
XKITLINE00
62
7
0
LINE
10
418162.738
20
6498275.158
30
0.000
11
418162.754
21
6498275.139
31
0.000
8
0
6
XKITLINE00
62
7
0
LINE
10
418162.754
20
6498275.139
30
0.000
11
418162.770
21
6498275.121
31
0.000
8
0
6
XKITLINE00
62
7
0
LINE
10
418162.770
20
6498275.121
30
0.000
11
418162.785
21
6498275.101
31
0.000
8
0
6
XKITLINE00
62
7
0
LINE
10
418162.785
20
6498275.101
30
0.000
11
418162.800
21
6498275.081
31
0.000
8
0
6
XKITLINE00
62
7
0
LINE
10
418162.800
20
6498275.081
30
0.000
11
418162.814
21
6498275.061
31
0.000
8
0
6
XKITLINE00
62
7
0
LINE
10
418162.814
20
6498275.061
30
0.000
11
418162.827
21
6498275.041
31
0.000
8
0
6
XKITLINE00
62
7
0
LINE
10
418162.827
20
6498275.041
30
0.000
11
418162.841
21
6498275.020
31
0.000
8
0
6
XKITLINE00
62
7
0
LINE
10
418162.841
20
6498275.020
30
0.000
11
418162.853
21
6498274.999
31
0.000
8
0
6
XKITLINE00
62
7
0
LINE
10
418162.853
20
6498274.999
30
0.000
11
418162.865
21
6498274.978
31
0.000
8
0
6
XKITLINE00
62
7
0
LINE
10
418162.865
20
6498274.978
30
0.000
11
418162.877
21
6498274.956
31
0.000
8
0
6
XKITLINE00
62
7
0
LINE
10
418162.877
20
6498274.956
30
0.000
11
418162.888
21
6498274.934
31
0.000
8
0
6
XKITLINE00
62
7
0
LINE
10
418162.888
20
6498274.934
30
0.000
11
418162.899
21
6498274.912
31
0.000
8
0
6
XKITLINE00
62
7
0
LINE
10
418162.899
20
6498274.912
30
0.000
11
418162.909
21
6498274.890
31
0.000
8
0
6
XKITLINE00
62
7
0
LINE
10
418162.909
20
6498274.890
30
0.000
11
418162.918
21
6498274.867
31
0.000
8
0
6
XKITLINE00
62
7
0
LINE
10
418162.918
20
6498274.867
30
0.000
11
418162.927
21
6498274.844
31
0.000
8
0
6
XKITLINE00
62
7
0
LINE
10
418162.927
20
6498274.844
30
0.000
11
418162.935
21
6498274.821
31
0.000
8
0
6
XKITLINE00
62
7
0
LINE
10
418162.935
20
6498274.821
30
0.000
11
418162.943
21
6498274.798
31
0.000
8
0
6
XKITLINE00
62
7
0
LINE
10
418162.943
20
6498274.798
30
0.000
11
418162.950
21
6498274.774
31
0.000
8
0
6
XKITLINE00
62
7
0
LINE
10
418162.950
20
6498274.774
30
0.000
11
418162.957
21
6498274.751
31
0.000
8
0
6
XKITLINE00
62
7
0
LINE
10
418162.957
20
6498274.751
30
0.000
11
418162.963
21
6498274.727
31
0.000
8
0
6
XKITLINE00
62
7
0
LINE
10
418162.963
20
6498274.727
30
0.000
11
418162.968
21
6498274.703
31
0.000
8
0
6
XKITLINE00
62
7
0
LINE
10
418162.968
20
6498274.703
30
0.000
11
418162.973
21
6498274.679
31
0.000
8
0
6
XKITLINE00
62
7
0
LINE
10
418162.973
20
6498274.679
30
0.000
11
418162.977
21
6498274.655
31
0.000
8
0
6
XKITLINE00
62
7
0
LINE
10
418162.977
20
6498274.655
30
0.000
11
418162.981
21
6498274.630
31
0.000
8
0
6
XKITLINE00
62
7
0
LINE
10
418162.981
20
6498274.630
30
0.000
11
418162.984
21
6498274.606
31
0.000
8
0
6
XKITLINE00
62
7
0
LINE
10
418162.984
20
6498274.606
30
0.000
11
418162.986
21
6498274.582
31
0.000
8
0
6
XKITLINE00
62
7
0
LINE
10
418162.986
20
6498274.582
30
0.000
11
418162.988
21
6498274.557
31
0.000
8
0
6
XKITLINE00
62
7
0
LINE
10
418162.988
20
6498274.557
30
0.000
11
418162.989
21
6498274.533
31
0.000
8
0
6
XKITLINE00
62
7
0
LINE
10
418162.989
20
6498274.533
30
0.000
11
418162.990
21
6498274.508
31
0.000
8
0
6
XKITLINE00
62
7
0
LINE
10
418162.990
20
6498274.508
30
0.000
11
418162.990
21
6498274.484
31
0.000
8
0
6
XKITLINE00
62
7
0
LINE
10
418162.990
20
6498274.484
30
0.000
11
418162.989
21
6498274.459
31
0.000
8
0
6
XKITLINE00
62
7
0
LINE
10
418162.989
20
6498274.459
30
0.000
11
418162.988
21
6498274.435
31
0.000
8
0
6
XKITLINE00
62
7
0
LINE
10
418162.988
20
6498274.435
30
0.000
11
418162.986
21
6498274.410
31
0.000
8
0
6
XKITLINE00
62
7
0
LINE
10
418162.986
20
6498274.410
30
0.000
11
418162.984
21
6498274.386
31
0.000
8
0
6
XKITLINE00
62
7
0
LINE
10
418162.984
20
6498274.386
30
0.000
11
418162.981
21
6498274.361
31
0.000
8
0
6
XKITLINE00
62
7
0
LINE
10
418162.981
20
6498274.361
30
0.000
11
418162.977
21
6498274.337
31
0.000
8
0
6
XKITLINE00
62
7
0
LINE
10
418162.977
20
6498274.337
30
0.000
11
418162.973
21
6498274.313
31
0.000
8
0
6
XKITLINE00
62
7
0
LINE
10
418162.973
20
6498274.313
30
0.000
11
418162.969
21
6498274.289
31
0.000
8
0
6
XKITLINE00
62
7
0
LINE
10
418162.969
20
6498274.289
30
0.000
11
418162.963
21
6498274.265
31
0.000
8
0
6
XKITLINE00
62
7
0
LINE
10
418162.963
20
6498274.265
30
0.000
11
418162.957
21
6498274.241
31
0.000
8
0
6
XKITLINE00
62
7
0
LINE
10
418162.957
20
6498274.241
30
0.000
11
418162.951
21
6498274.217
31
0.000
8
0
6
XKITLINE00
62
7
0
LINE
10
418162.951
20
6498274.217
30
0.000
11
418162.944
21
6498274.194
31
0.000
8
0
6
XKITLINE00
62
7
0
LINE
10
418162.944
20
6498274.194
30
0.000
11
418162.936
21
6498274.171
31
0.000
8
0
6
XKITLINE00
62
7
0
LINE
10
418162.936
20
6498274.171
30
0.000
11
418162.928
21
6498274.147
31
0.000
8
0
6
XKITLINE00
62
7
0
LINE
10
418162.928
20
6498274.147
30
0.000
11
418162.919
21
6498274.125
31
0.000
8
0
6
XKITLINE00
62
7
0
LINE
10
418162.919
20
6498274.125
30
0.000
11
418162.910
21
6498274.102
31
0.000
8
0
6
XKITLINE00
62
7
0
LINE
10
418162.910
20
6498274.102
30
0.000
11
418162.900
21
6498274.079
31
0.000
8
0
6
XKITLINE00
62
7
0
LINE
10
418162.900
20
6498274.079
30
0.000
11
418162.889
21
6498274.057
31
0.000
8
0
6
XKITLINE00
62
7
0
LINE
10
418162.889
20
6498274.057
30
0.000
11
418162.878
21
6498274.035
31
0.000
8
0
6
XKITLINE00
62
7
0
LINE
10
418162.878
20
6498274.035
30
0.000
11
418162.867
21
6498274.014
31
0.000
8
0
6
XKITLINE00
62
7
0
LINE
10
418162.867
20
6498274.014
30
0.000
11
418162.855
21
6498273.992
31
0.000
8
0
6
XKITLINE00
62
7
0
LINE
10
418162.855
20
6498273.992
30
0.000
11
418162.842
21
6498273.971
31
0.000
8
0
6
XKITLINE00
62
7
0
LINE
10
418162.842
20
6498273.971
30
0.000
11
418162.829
21
6498273.950
31
0.000
8
0
6
XKITLINE00
62
7
0
LINE
10
418162.829
20
6498273.950
30
0.000
11
418162.815
21
6498273.930
31
0.000
8
0
6
XKITLINE00
62
7
0
LINE
10
418162.815
20
6498273.930
30
0.000
11
418162.801
21
6498273.910
31
0.000
8
0
6
XKITLINE00
62
7
0
LINE
10
418162.801
20
6498273.910
30
0.000
11
418162.787
21
6498273.890
31
0.000
8
0
6
XKITLINE00
62
7
0
LINE
10
418162.787
20
6498273.890
30
0.000
11
418162.772
21
6498273.871
31
0.000
8
0
6
XKITLINE00
62
7
0
LINE
10
418162.772
20
6498273.871
30
0.000
11
418162.756
21
6498273.852
31
0.000
8
0
6
XKITLINE00
62
7
0
LINE
10
418162.756
20
6498273.852
30
0.000
11
418162.740
21
6498273.833
31
0.000
8
0
6
XKITLINE00
62
7
0
LINE
10
418162.740
20
6498273.833
30
0.000
11
418162.724
21
6498273.815
31
0.000
8
0
6
XKITLINE00
62
7
0
LINE
10
418162.724
20
6498273.815
30
0.000
11
418162.707
21
6498273.797
31
0.000
8
0
6
XKITLINE00
62
7
0
LINE
10
418162.707
20
6498273.797
30
0.000
11
418162.689
21
6498273.780
31
0.000
8
0
6
XKITLINE00
62
7
0
LINE
10
418162.689
20
6498273.780
30
0.000
11
418162.672
21
6498273.763
31
0.000
8
0
6
XKITLINE00
62
7
0
LINE
10
418162.672
20
6498273.763
30
0.000
11
418162.653
21
6498273.746
31
0.000
8
0
6
XKITLINE00
62
7
0
LINE
10
418162.653
20
6498273.746
30
0.000
11
418162.635
21
6498273.730
31
0.000
8
0
6
XKITLINE00
62
7
0
LINE
10
418162.635
20
6498273.730
30
0.000
11
418162.616
21
6498273.715
31
0.000
8
0
6
XKITLINE00
62
7
0
LINE
10
418162.616
20
6498273.715
30
0.000
11
418162.597
21
6498273.700
31
0.000
8
0
6
XKITLINE00
62
7
0
LINE
10
418162.597
20
6498273.700
30
0.000
11
418162.577
21
6498273.685
31
0.000
8
0
6
XKITLINE00
62
7
0
LINE
10
418162.577
20
6498273.685
30
0.000
11
418162.557
21
6498273.671
31
0.000
8
0
6
XKITLINE00
62
7
0
LINE
10
418162.557
20
6498273.671
30
0.000
11
418162.536
21
6498273.657
31
0.000
8
0
6
XKITLINE00
62
7
0
LINE
10
418162.536
20
6498273.657
30
0.000
11
418162.516
21
6498273.644
31
0.000
8
0
6
XKITLINE00
62
7
0
LINE
10
418162.516
20
6498273.644
30
0.000
11
418162.495
21
6498273.631
31
0.000
8
0
6
XKITLINE00
62
7
0
LINE
10
418162.495
20
6498273.631
30
0.000
11
418162.473
21
6498273.619
31
0.000
8
0
6
XKITLINE00
62
7
0
LINE
10
418162.473
20
6498273.619
30
0.000
11
418162.452
21
6498273.608
31
0.000
8
0
6
XKITLINE00
62
7
0
LINE
10
418162.452
20
6498273.608
30
0.000
11
418162.430
21
6498273.597
31
0.000
8
0
6
XKITLINE00
62
7
0
LINE
10
418162.430
20
6498273.597
30
0.000
11
418162.408
21
6498273.586
31
0.000
8
0
6
XKITLINE00
62
7
0
LINE
10
418162.408
20
6498273.586
30
0.000
11
418162.385
21
6498273.576
31
0.000
8
0
6
XKITLINE00
62
7
0
LINE
10
418162.385
20
6498273.576
30
0.000
11
418162.363
21
6498273.567
31
0.000
8
0
6
XKITLINE00
62
7
0
LINE
10
418162.363
20
6498273.567
30
0.000
11
418162.340
21
6498273.558
31
0.000
8
0
6
XKITLINE00
62
7
0
LINE
10
418162.340
20
6498273.558
30
0.000
11
418162.317
21
6498273.549
31
0.000
8
0
6
XKITLINE00
62
7
0
LINE
10
418162.317
20
6498273.549
30
0.000
11
418162.293
21
6498273.542
31
0.000
8
0
6
XKITLINE00
62
7
0
LINE
10
418162.293
20
6498273.542
30
0.000
11
418162.270
21
6498273.535
31
0.000
8
0
6
XKITLINE00
62
7
0
LINE
10
418162.270
20
6498273.535
30
0.000
11
418162.246
21
6498273.528
31
0.000
8
0
6
XKITLINE00
62
7
0
LINE
10
418162.246
20
6498273.528
30
0.000
11
418162.222
21
6498273.522
31
0.000
8
0
6
XKITLINE00
62
7
0
LINE
10
418162.222
20
6498273.522
30
0.000
11
418162.198
21
6498273.517
31
0.000
8
0
6
XKITLINE00
62
7
0
LINE
10
418162.198
20
6498273.517
30
0.000
11
418162.174
21
6498273.512
31
0.000
8
0
6
XKITLINE00
62
7
0
LINE
10
418162.174
20
6498273.512
30
0.000
11
418162.150
21
6498273.508
31
0.000
8
0
6
XKITLINE00
62
7
0
LINE
10
418162.150
20
6498273.508
30
0.000
11
418162.126
21
6498273.504
31
0.000
8
0
6
XKITLINE00
62
7
0
LINE
10
418162.126
20
6498273.504
30
0.000
11
418162.101
21
6498273.501
31
0.000
8
0
6
XKITLINE00
62
7
0
LINE
10
418162.101
20
6498273.501
30
0.000
11
418162.077
21
6498273.498
31
0.000
8
0
6
XKITLINE00
62
7
0
LINE
10
418162.077
20
6498273.498
30
0.000
11
418162.053
21
6498273.497
31
0.000
8
0
6
XKITLINE00
62
7
0
LINE
10
418162.053
20
6498273.497
30
0.000
11
418162.028
21
6498273.495
31
0.000
8
0
6
XKITLINE00
62
7
0
LINE
10
418162.028
20
6498273.495
30
0.000
11
418162.004
21
6498273.495
31
0.000
8
0
6
XKITLINE00
62
7
0
LINE
10
418162.004
20
6498273.495
30
0.000
11
418161.979
21
6498273.495
31
0.000
8
0
6
XKITLINE00
62
7
0
LINE
10
418161.979
20
6498273.495
30
0.000
11
418161.954
21
6498273.495
31
0.000
8
0
6
XKITLINE00
62
7
0
LINE
10
418161.954
20
6498273.495
30
0.000
11
418161.930
21
6498273.496
31
0.000
8
0
6
XKITLINE00
62
7
0
LINE
10
418161.930
20
6498273.496
30
0.000
11
418161.905
21
6498273.498
31
0.000
8
0
6
XKITLINE00
62
7
0
LINE
10
418161.905
20
6498273.498
30
0.000
11
418161.881
21
6498273.501
31
0.000
8
0
6
XKITLINE00
62
7
0
LINE
10
418161.881
20
6498273.501
30
0.000
11
418161.857
21
6498273.504
31
0.000
8
0
6
XKITLINE00
62
7
0
LINE
10
418161.857
20
6498273.504
30
0.000
11
418161.832
21
6498273.507
31
0.000
8
0
6
XKITLINE00
62
7
0
LINE
10
418161.832
20
6498273.507
30
0.000
11
418161.808
21
6498273.511
31
0.000
8
0
6
XKITLINE00
62
7
0
LINE
10
418161.808
20
6498273.511
30
0.000
11
418161.784
21
6498273.516
31
0.000
8
0
6
XKITLINE00
62
7
0
LINE
10
418161.784
20
6498273.516
30
0.000
11
418161.760
21
6498273.521
31
0.000
8
0
6
XKITLINE00
62
7
0
LINE
10
418161.760
20
6498273.521
30
0.000
11
418161.736
21
6498273.527
31
0.000
8
0
6
XKITLINE00
62
7
0
LINE
10
418161.736
20
6498273.527
30
0.000
11
418161.713
21
6498273.534
31
0.000
8
0
6
XKITLINE00
62
7
0
LINE
10
418161.713
20
6498273.534
30
0.000
11
418161.689
21
6498273.541
31
0.000
8
0
6
XKITLINE00
62
7
0
LINE
10
418161.689
20
6498273.541
30
0.000
11
418161.666
21
6498273.549
31
0.000
8
0
6
XKITLINE00
62
7
0
LINE
10
418161.666
20
6498273.549
30
0.000
11
418161.643
21
6498273.557
31
0.000
8
0
6
XKITLINE00
62
7
0
LINE
10
418161.643
20
6498273.557
30
0.000
11
418161.620
21
6498273.566
31
0.000
8
0
6
XKITLINE00
62
7
0
LINE
10
418161.620
20
6498273.566
30
0.000
11
418161.597
21
6498273.575
31
0.000
8
0
6
XKITLINE00
62
7
0
LINE
10
418161.597
20
6498273.575
30
0.000
11
418161.575
21
6498273.585
31
0.000
8
0
6
XKITLINE00
62
7
0
LINE
10
418161.575
20
6498273.585
30
0.000
11
418161.553
21
6498273.595
31
0.000
8
0
6
XKITLINE00
62
7
0
LINE
10
418161.553
20
6498273.595
30
0.000
11
418161.531
21
6498273.606
31
0.000
8
0
6
XKITLINE00
62
7
0
LINE
10
418161.531
20
6498273.606
30
0.000
11
418161.509
21
6498273.618
31
0.000
8
0
6
XKITLINE00
62
7
0
LINE
10
418161.509
20
6498273.618
30
0.000
11
418161.488
21
6498273.630
31
0.000
8
0
6
XKITLINE00
62
7
0
LINE
10
418161.488
20
6498273.630
30
0.000
11
418161.466
21
6498273.643
31
0.000
8
0
6
XKITLINE00
62
7
0
LINE
10
418161.466
20
6498273.643
30
0.000
11
418161.446
21
6498273.656
31
0.000
8
0
6
XKITLINE00
62
7
0
LINE
10
418161.446
20
6498273.656
30
0.000
11
418161.425
21
6498273.669
31
0.000
8
0
6
XKITLINE00
62
7
0
LINE
10
418161.425
20
6498273.669
30
0.000
11
418161.405
21
6498273.683
31
0.000
8
0
6
XKITLINE00
62
7
0
LINE
10
418161.405
20
6498273.683
30
0.000
11
418161.386
21
6498273.698
31
0.000
8
0
6
XKITLINE00
62
7
0
LINE
10
418161.386
20
6498273.698
30
0.000
11
418161.366
21
6498273.713
31
0.000
8
0
6
XKITLINE00
62
7
0
LINE
10
418161.366
20
6498273.713
30
0.000
11
418161.347
21
6498273.729
31
0.000
8
0
6
XKITLINE00
62
7
0
LINE
10
418161.347
20
6498273.729
30
0.000
11
418161.329
21
6498273.745
31
0.000
8
0
6
XKITLINE00
62
7
0
LINE
10
418161.329
20
6498273.745
30
0.000
11
418161.310
21
6498273.761
31
0.000
8
0
6
XKITLINE00
62
7
0
LINE
10
418161.310
20
6498273.761
30
0.000
11
418161.293
21
6498273.778
31
0.000
8
0
6
XKITLINE00
62
7
0
LINE
10
418161.293
20
6498273.778
30
0.000
11
418161.275
21
6498273.795
31
0.000
8
0
6
XKITLINE00
62
7
0
LINE
10
418161.275
20
6498273.795
30
0.000
11
418161.258
21
6498273.813
31
0.000
8
0
6
XKITLINE00
62
7
0
LINE
10
418161.258
20
6498273.813
30
0.000
11
418161.242
21
6498273.831
31
0.000
8
0
6
XKITLINE00
62
7
0
LINE
10
418161.242
20
6498273.831
30
0.000
11
418161.226
21
6498273.850
31
0.000
8
0
6
XKITLINE00
62
7
0
LINE
10
418161.226
20
6498273.850
30
0.000
11
418161.210
21
6498273.869
31
0.000
8
0
6
XKITLINE00
62
7
0
LINE
10
418161.210
20
6498273.869
30
0.000
11
418161.195
21
6498273.888
31
0.000
8
0
6
XKITLINE00
62
7
0
LINE
10
418161.195
20
6498273.888
30
0.000
11
418161.180
21
6498273.908
31
0.000
8
0
6
XKITLINE00
62
7
0
LINE
10
418161.180
20
6498273.908
30
0.000
11
418161.166
21
6498273.928
31
0.000
8
0
6
XKITLINE00
62
7
0
LINE
10
418161.166
20
6498273.928
30
0.000
11
418161.152
21
6498273.948
31
0.000
8
0
6
XKITLINE00
62
7
0
LINE
10
418161.152
20
6498273.948
30
0.000
11
418161.139
21
6498273.969
31
0.000
8
0
6
XKITLINE00
62
7
0
LINE
10
418161.139
20
6498273.969
30
0.000
11
418161.127
21
6498273.990
31
0.000
8
0
6
XKITLINE00
62
7
0
LINE
10
418161.127
20
6498273.990
30
0.000
11
418161.115
21
6498274.011
31
0.000
8
0
6
XKITLINE00
62
7
0
LINE
10
418161.115
20
6498274.011
30
0.000
11
418161.103
21
6498274.033
31
0.000
8
0
6
XKITLINE00
62
7
0
LINE
10
418161.103
20
6498274.033
30
0.000
11
418161.092
21
6498274.055
31
0.000
8
0
6
XKITLINE00
62
7
0
LINE
10
418161.092
20
6498274.055
30
0.000
11
418161.081
21
6498274.077
31
0.000
8
0
6
XKITLINE00
62
7
0
LINE
10
418161.081
20
6498274.077
30
0.000
11
418161.071
21
6498274.099
31
0.000
8
0
6
XKITLINE00
62
7
0
LINE
10
418161.071
20
6498274.099
30
0.000
11
418161.062
21
6498274.122
31
0.000
8
0
6
XKITLINE00
62
7
0
LINE
10
418161.062
20
6498274.122
30
0.000
11
418161.053
21
6498274.145
31
0.000
8
0
6
XKITLINE00
62
7
0
LINE
10
418161.053
20
6498274.145
30
0.000
11
418161.045
21
6498274.168
31
0.000
8
0
6
XKITLINE00
62
7
0
LINE
10
418161.045
20
6498274.168
30
0.000
11
418161.037
21
6498274.191
31
0.000
8
0
6
XKITLINE00
62
7
0
LINE
10
418161.037
20
6498274.191
30
0.000
11
418161.030
21
6498274.215
31
0.000
8
0
6
XKITLINE00
62
7
0
LINE
10
418161.030
20
6498274.215
30
0.000
11
418161.023
21
6498274.238
31
0.000
8
0
6
XKITLINE00
62
7
0
LINE
10
418161.023
20
6498274.238
30
0.000
11
418161.017
21
6498274.262
31
0.000
8
0
6
XKITLINE00
62
7
0
LINE
10
418161.017
20
6498274.262
30
0.000
11
418161.012
21
6498274.286
31
0.000
8
0
6
XKITLINE00
62
7
0
LINE
10
418161.012
20
6498274.286
30
0.000
11
418161.007
21
6498274.310
31
0.000
8
0
6
XKITLINE00
62
7
0
LINE
10
418161.007
20
6498274.310
30
0.000
11
418161.003
21
6498274.334
31
0.000
8
0
6
XKITLINE00
62
7
0
LINE
10
418161.003
20
6498274.334
30
0.000
11
418160.999
21
6498274.359
31
0.000
8
0
6
XKITLINE00
62
7
0
LINE
10
418160.999
20
6498274.359
30
0.000
11
418160.996
21
6498274.383
31
0.000
8
0
6
XKITLINE00
62
7
0
LINE
10
418160.996
20
6498274.383
30
0.000
11
418160.994
21
6498274.408
31
0.000
8
0
6
XKITLINE00
62
7
0
LINE
10
418160.994
20
6498274.408
30
0.000
11
418160.992
21
6498274.432
31
0.000
8
0
6
XKITLINE00
62
7
0
LINE
10
418160.992
20
6498274.432
30
0.000
11
418160.991
21
6498274.456
31
0.000
8
0
6
XKITLINE00
62
7
0
LINE
10
418160.991
20
6498274.456
30
0.000
11
418160.990
21
6498274.481
31
0.000
8
0
6
XKITLINE00
62
7
0
LINE
10
418160.990
20
6498274.481
30
0.000
11
418160.990
21
6498274.506
31
0.000
8
0
6
XKITLINE00
62
7
0
LINE
10
418160.990
20
6498274.506
30
0.000
11
418160.991
21
6498274.530
31
0.000
8
0
6
XKITLINE00
62
7
0
LINE
10
418160.991
20
6498274.530
30
0.000
11
418160.992
21
6498274.555
31
0.000
8
0
6
XKITLINE00
62
7
0
LINE
10
418160.992
20
6498274.555
30
0.000
11
418160.994
21
6498274.579
31
0.000
8
0
6
XKITLINE00
62
7
0
LINE
10
418160.994
20
6498274.579
30
0.000
11
418160.996
21
6498274.604
31
0.000
8
0
6
XKITLINE00
62
7
0
LINE
10
418160.996
20
6498274.604
30
0.000
11
418160.999
21
6498274.628
31
0.000
8
0
6
XKITLINE00
62
7
0
LINE
10
418160.999
20
6498274.628
30
0.000
11
418161.002
21
6498274.652
31
0.000
8
0
6
XKITLINE00
62
7
0
LINE
10
418161.002
20
6498274.652
30
0.000
11
418161.007
21
6498274.676
31
0.000
8
0
6
XKITLINE00
62
7
0
LINE
10
418161.007
20
6498274.676
30
0.000
11
418161.011
21
6498274.700
31
0.000
8
0
6
XKITLINE00
62
7
0
LINE
10
418161.011
20
6498274.700
30
0.000
11
418161.017
21
6498274.724
31
0.000
8
0
6
XKITLINE00
62
7
0
LINE
10
418161.017
20
6498274.724
30
0.000
11
418161.023
21
6498274.748
31
0.000
8
0
6
XKITLINE00
62
7
0
LINE
10
418161.023
20
6498274.748
30
0.000
11
418161.029
21
6498274.772
31
0.000
8
0
6
XKITLINE00
62
7
0
LINE
10
418161.029
20
6498274.772
30
0.000
11
418161.036
21
6498274.795
31
0.000
8
0
6
XKITLINE00
62
7
0
LINE
10
418161.036
20
6498274.795
30
0.000
11
418161.044
21
6498274.819
31
0.000
8
0
6
XKITLINE00
62
7
0
LINE
10
418161.044
20
6498274.819
30
0.000
11
418161.052
21
6498274.842
31
0.000
8
0
6
XKITLINE00
62
7
0
LINE
10
418161.052
20
6498274.842
30
0.000
11
418161.061
21
6498274.865
31
0.000
8
0
6
XKITLINE00
62
7
0
LINE
10
418161.061
20
6498274.865
30
0.000
11
418161.070
21
6498274.887
31
0.000
8
0
6
XKITLINE00
62
7
0
LINE
10
418161.070
20
6498274.887
30
0.000
11
418161.080
21
6498274.910
31
0.000
8
0
6
XKITLINE00
62
7
0
LINE
10
418161.080
20
6498274.910
30
0.000
11
418161.091
21
6498274.932
31
0.000
8
0
6
XKITLINE00
62
7
0
LINE
10
418161.091
20
6498274.932
30
0.000
11
418161.102
21
6498274.954
31
0.000
8
0
6
XKITLINE00
62
7
0
LINE
10
418161.102
20
6498274.954
30
0.000
11
418161.113
21
6498274.976
31
0.000
8
0
6
XKITLINE00
62
7
0
LINE
10
418161.113
20
6498274.976
30
0.000
11
418161.125
21
6498274.997
31
0.000
8
0
6
XKITLINE00
62
7
0
LINE
10
418161.125
20
6498274.997
30
0.000
11
418161.138
21
6498275.018
31
0.000
8
0
6
XKITLINE00
62
7
0
LINE
10
418161.138
20
6498275.018
30
0.000
11
418161.151
21
6498275.039
31
0.000
8
0
6
XKITLINE00
62
7
0
LINE
10
418161.151
20
6498275.039
30
0.000
11
418161.165
21
6498275.059
31
0.000
8
0
6
XKITLINE00
62
7
0
LINE
10
418161.165
20
6498275.059
30
0.000
11
418161.179
21
6498275.079
31
0.000
8
0
6
XKITLINE00
62
7
0
LINE
10
418161.179
20
6498275.079
30
0.000
11
418161.193
21
6498275.099
31
0.000
8
0
6
XKITLINE00
62
7
0
LINE
10
418161.193
20
6498275.099
30
0.000
11
418161.208
21
6498275.118
31
0.000
8
0
6
XKITLINE00
62
7
0
LINE
10
418161.208
20
6498275.118
30
0.000
11
418161.224
21
6498275.137
31
0.000
8
0
6
XKITLINE00
62
7
0
LINE
10
418161.224
20
6498275.137
30
0.000
11
418161.240
21
6498275.156
31
0.000
8
0
6
XKITLINE00
62
7
0
LINE
10
418161.240
20
6498275.156
30
0.000
11
418161.256
21
6498275.174
31
0.000
8
0
6
XKITLINE00
62
7
0
LINE
10
418161.256
20
6498275.174
30
0.000
11
418161.273
21
6498275.192
31
0.000
8
0
6
XKITLINE00
62
7
0
LINE
10
418161.273
20
6498275.192
30
0.000
11
418161.291
21
6498275.209
31
0.000
8
0
6
XKITLINE00
62
7
0
LINE
10
418161.291
20
6498275.209
30
0.000
11
418161.291
21
6498275.209
31
0.000
8
0
6
XKITLINE00
62
7
0
LINE
10
418161.293
20
6498273.778
30
0.000
11
418156.410
21
6498268.761
31
0.000
8
0
6
XKITLINE02
62
7
0
TEXT
10
418061.533
20
6498415.050
30
0.000
40
3.000
41
1.000
1
40301:001:0016
50
0.000
51
0.000
8
0
62
30
0
TEXT
10
418013.224
20
6498410.550
30
0.000
40
3.000
41
1.000
1
Rannamaja, Soela küla, Saaremaa vald, Saare maakond
50
0.000
51
0.000
8
0
62
30
0
TEXT
10
418147.451
20
6498320.538
30
0.000
40
3.000
41
1.000
1
40301:001:0303
50
0.000
51
0.000
8
0
62
30
0
TEXT
10
418102.079
20
6498316.038
30
0.000
40
3.000
41
1.000
1
Soolalao, Soela küla, Saaremaa vald, Saare maakond
50
0.000
51
0.000
8
0
62
30
0
TEXT
10
418077.157
20
6498173.284
30
0.000
40
26.000
41
1.000
1
Soola
50
0.000
51
0.000
8
0
62
7
0
TEXT
10
418070.821
20
6498206.341
30
0.000
40
0.010
41
1.000
1
AXPK.4x50
50
89.530
51
0.000
8
0
62
7
0
TEXT
10
418070.841
20
6498206.321
30
0.000
40
0.010
41
1.000
1
Tamme,Soela M1
50
89.530
51
0.000
8
0
62
7
0
TEXT
10
418070.931
20
6498206.341
30
0.000
40
0.010
41
1.000
1
AXPK.4x50
50
89.530
51
0.000
8
0
62
7
0
TEXT
10
418070.950
20
6498206.329
30
0.000
40
0.010
41
1.000
1
Soolaladu M1
50
89.530
51
0.000
8
0
62
7
0
TEXT
10
418155.259
20
6498268.070
30
0.000
40
0.010
41
1.000
1
AXPK.4x16
50
90.000
51
0.000
8
0
62
7
0
TEXT
10
418155.279
20
6498268.078
30
0.000
40
0.010
41
1.000
1
ÕL mast
50
90.000
51
0.000
8
0
62
7
0
TEXT
10
418155.516
20
6498268.070
30
0.000
40
0.010
41
1.000
1
AXPK.4x16
50
90.000
51
0.000
8
0
62
7
0
TEXT
10
418155.536
20
6498268.098
30
0.000
40
0.010
41
1.000
1
LK
50
90.000
51
0.000
8
0
62
7
0
TEXT
10
418155.345
20
6498268.066
30
0.000
40
0.010
41
1.000
1
AXPK.4x50
50
90.000
51
0.000
8
0
62
7
0
TEXT
10
418155.365
20
6498268.070
30
0.000
40
0.010
41
1.000
1
Heinamaa
50
90.000
51
0.000
8
0
62
7
0
TEXT
10
418155.431
20
6498268.066
30
0.000
40
0.010
41
1.000
1
AXMK.4x50
50
90.000
51
0.000
8
0
62
7
0
TEXT
10
418155.451
20
6498268.070
30
0.000
40
0.010
41
1.000
1
148152LK
50
90.000
51
0.000
8
0
62
7
0
TEXT
10
417963.203
20
6498344.665
30
0.000
40
4.000
41
1.000
1
AXPK.4x120 MPL432183
50
0.121
51
0.000
8
0
62
5
0
LINE
10
418053.844
20
6498358.084
30
0.000
11
418037.890
21
6498344.543
31
0.000
8
0
6
XKITLINE00
62
5
0
LINE
10
418037.890
20
6498344.543
30
0.000
11
417963.203
21
6498344.385
31
0.000
8
0
6
XKITLINE00
62
5
0
TEXT
10
418039.141
20
6498167.271
30
0.000
40
4.000
41
1.000
1
EX.4x50
50
43.005
51
0.000
8
0
62
7
0
TEXT
10
418081.972
20
6498214.708
30
0.000
40
4.000
41
1.000
1
EX.4x50
50
31.625
51
0.000
8
0
62
7
0
TEXT
10
417757.635
20
6498478.429
30
0.000
40
3.000
41
1.000
1
40301:001:0191
50
0.000
51
0.000
8
0
62
30
0
TEXT
10
417933.146
20
6498378.429
30
0.000
40
3.000
41
1.000
1
71401:001:1276
50
0.000
51
0.000
8
0
62
30
0
TEXT
10
417891.931
20
6498373.929
30
0.000
40
3.000
41
1.000
1
Kase, Soela küla, Saaremaa vald, Saare maakond
50
0.000
51
0.000
8
0
62
30
0
TEXT
10
417834.525
20
6498272.808
30
0.000
40
3.000
41
1.000
1
40301:001:0278
50
0.000
51
0.000
8
0
62
30
0
TEXT
10
417790.899
20
6498268.308
30
0.000
40
3.000
41
1.000
1
Tamme, Soela küla, Saaremaa vald, Saare maakond
50
0.000
51
0.000
8
0
62
30
0
TEXT
10
417985.385
20
6498519.386
30
0.000
40
3.000
41
1.000
1
71401:001:0192
50
0.000
51
0.000
8
0
62
30
0
TEXT
10
417940.662
20
6498514.886
30
0.000
40
3.000
41
1.000
1
Kivisilla, Soela küla, Saaremaa vald, Saare maakond
50
0.000
51
0.000
8
0
62
30
0
TEXT
10
418029.080
20
6498328.019
30
0.000
40
3.000
41
1.000
1
71401:001:3220
50
0.000
51
0.000
8
0
62
30
0
TEXT
10
417981.306
20
6498323.519
30
0.000
40
3.000
41
1.000
1
Kaseranna, Soela küla, Saaremaa vald, Saare maakond
50
0.000
51
0.000
8
0
62
30
0
TEXT
10
417941.896
20
6498477.464
30
0.000
40
3.000
41
1.000
1
40301:001:0279
50
0.000
51
0.000
8
0
62
30
0
TEXT
10
417898.270
20
6498472.964
30
0.000
40
3.000
41
1.000
1
Tamme, Soela küla, Saaremaa vald, Saare maakond
50
0.000
51
0.000
8
0
62
30
0
TEXT
10
417921.873
20
6498550.925
30
0.000
40
3.000
41
1.000
1
71401:001:0191
50
0.000
51
0.000
8
0
62
30
0
TEXT
10
417879.164
20
6498546.425
30
0.000
40
3.000
41
1.000
1
Pärna, Soela küla, Saaremaa vald, Saare maakond
50
0.000
51
0.000
8
0
62
30
0
TEXT
10
417808.189
20
6498474.382
30
0.000
40
3.000
41
1.000
1
40301:001:0275
50
0.000
51
0.000
8
0
62
30
0
TEXT
10
417763.402
20
6498469.882
30
0.000
40
3.000
41
1.000
1
Kaasiku, Soela küla, Saaremaa vald, Saare maakond
50
0.000
51
0.000
8
0
62
30
0
TEXT
10
417791.188
20
6498490.039
30
0.000
40
6.600
41
0.900
1
Kaasiku
50
0.000
51
0.000
8
0
62
7
0
TEXT
10
417871.551
20
6498174.629
30
0.000
40
6.600
41
0.900
1
Tamme
50
0.000
51
0.000
8
0
62
7
0
TEXT
10
418002.642
20
6498503.458
30
0.000
40
6.600
41
0.900
1
Kivisilla
50
0.000
51
0.000
8
0
62
5
0
TEXT
10
418070.861
20
6498206.482
30
0.000
40
0.015
41
1.000
1
0,4kV
50
0.000
51
0.000
8
0
62
7
0
TEXT
10
418005.580
20
6498496.561
30
0.000
40
5.500
41
0.900
1
LK231990
50
0.000
51
0.000
8
0
62
5
0
TEXT
10
418081.928
20
6498203.489
30
0.000
40
5.500
41
0.900
1
MK12437
50
0.000
51
0.000
8
0
62
5
0
TEXT
10
418070.848
20
6498206.445
30
0.000
40
0.018
41
1.000
1
F1
50
-0.017
51
0.000
8
0
62
7
0
TEXT
10
418070.848
20
6498206.435
30
0.000
40
0.010
41
1.000
1
NH 00
50
-0.017
51
0.000
8
0
62
7
0
TEXT
10
418070.848
20
6498206.425
30
0.000
40
0.010
41
1.000
1
35/160
50
-0.017
51
0.000
8
0
62
7
0
TEXT
10
418070.957
20
6498206.445
30
0.000
40
0.018
41
1.000
1
F2
50
-0.122
51
0.000
8
0
62
7
0
TEXT
10
418070.957
20
6498206.435
30
0.000
40
0.010
41
1.000
1
NH 000
50
-0.122
51
0.000
8
0
62
7
0
TEXT
10
418070.957
20
6498206.425
30
0.000
40
0.010
41
1.000
1
80/160
50
-0.122
51
0.000
8
0
62
7
0
TEXT
10
418070.853
20
6498206.573
30
0.000
40
0.018
41
1.000
1
T
50
0.000
51
0.000
8
0
62
7
0
TEXT
10
418070.853
20
6498206.556
30
0.000
40
0.018
41
1.000
1
  50kVA
50
0.000
51
0.000
8
0
62
7
0
TEXT
10
418070.834
20
6498206.670
30
0.000
40
0.015
41
1.000
1
 6.3A
50
0.000
51
0.000
8
0
62
7
0
TEXT
10
418053.385
20
6498199.379
30
0.000
40
6.000
41
0.950
1
1
50
0.000
51
0.000
8
0
62
7
0
TEXT
10
417739.881
20
6498539.476
30
0.000
40
6.000
41
0.950
1
2
50
0.000
51
0.000
8
0
62
7
0
TEXT
10
418109.900
20
6498237.798
30
0.000
40
6.000
41
0.950
1
2
50
0.000
51
0.000
8
0
62
7
0
TEXT
10
418069.772
20
6498214.061
30
0.000
40
6.000
41
0.950
1
1
50
0.000
51
0.000
8
0
62
7
0
TEXT
10
417786.726
20
6498576.103
30
0.000
40
6.000
41
0.950
1
3
50
0.000
51
0.000
8
0
62
7
0
TEXT
10
418014.689
20
6498172.996
30
0.000
40
15.000
41
1.000
1
2
50
0.000
51
0.000
8
0
62
7
0
TEXT
10
418053.225
20
6498201.909
30
0.000
40
15.000
41
1.000
1
1
50
0.000
51
0.000
8
0
62
7
0
TEXT
10
418190.814
20
6498317.870
30
0.000
40
3.000
41
1.000
1
40301:001:0744
50
0.000
51
0.000
8
0
62
30
0
TEXT
10
418146.250
20
6498313.370
30
0.000
40
3.000
41
1.000
1
Sadama, Soela küla, Saaremaa vald, Saare maakond
50
0.000
51
0.000
8
0
62
30
0
TEXT
10
418226.916
20
6498153.198
30
0.000
40
3.000
41
1.000
1
40301:001:0089
50
0.000
51
0.000
8
0
62
30
0
TEXT
10
418184.921
20
6498148.698
30
0.000
40
3.000
41
1.000
1
Soela, Soela küla, Saaremaa vald, Saare maakond
50
0.000
51
0.000
8
0
62
30
0
TEXT
10
418144.918
20
6498306.938
30
0.000
40
6.600
41
0.900
1
Sadama
50
0.000
51
0.000
8
0
62
7
0
TEXT
10
418162.717
20
6498280.669
30
0.000
40
5.500
41
0.900
1
148152LK
50
0.000
51
0.000
8
0
62
1
0
TEXT
10
418155.290
20
6498268.179
30
0.000
40
0.018
41
1.000
1
F1
50
0.000
51
0.000
8
0
62
7
0
TEXT
10
418155.371
20
6498268.179
30
0.000
40
0.018
41
1.000
1
F2
50
0.000
51
0.000
8
0
62
7
0
TEXT
10
418155.371
20
6498268.169
30
0.000
40
0.010
41
1.000
1
NH 00C
50
0.000
51
0.000
8
0
62
7
0
TEXT
10
418155.371
20
6498268.159
30
0.000
40
0.010
41
1.000
1
32/160
50
0.000
51
0.000
8
0
62
7
0
TEXT
10
418155.457
20
6498268.179
30
0.000
40
0.018
41
1.000
1
F3
50
0.000
51
0.000
8
0
62
7
0
TEXT
10
418155.457
20
6498268.169
30
0.000
40
0.010
41
1.000
1
NH 000
50
0.000
51
0.000
8
0
62
7
0
TEXT
10
418155.457
20
6498268.159
30
0.000
40
0.010
41
1.000
1
63/160
50
0.000
51
0.000
8
0
62
7
0
TEXT
10
418155.415
20
6498268.026
30
0.000
40
0.015
41
0.900
1
82113
50
0.000
51
0.000
8
0
62
4
0
TEXT
10
418153.138
20
6498256.633
30
0.000
40
6.000
41
0.950
1
3
50
0.000
51
0.000
8
0
62
7
0
TEXT
10
418021.734
20
6498529.020
30
0.000
40
6.000
41
1.000
1
PK = 3x16A
50
0.000
51
0.000
8
0
62
5
0
TEXT
10
418021.734
20
6498521.520
30
0.000
40
6.000
41
1.000
1
Ik1 = 533A
50
0.000
51
0.000
8
0
62
5
0
LINE
10
417732.880
20
6498140.255
30
0.000
11
417732.880
21
6498610.655
31
0.000
8
0
6
XKITLINE00
62
0
0
LINE
10
417732.880
20
6498610.655
30
0.000
11
418412.080
21
6498610.655
31
0.000
8
0
6
XKITLINE00
62
0
0
LINE
10
418412.080
20
6498610.655
30
0.000
11
418412.080
21
6498140.255
31
0.000
8
0
6
XKITLINE00
62
0
0
LINE
10
418412.080
20
6498140.255
30
0.000
11
417732.880
21
6498140.255
31
0.000
8
0
6
XKITLINE00
62
0
0
ENDSEC
0
EOF
