  0
SECTION
  2
HEADER
  9
$ACADVER
  1
AC1032
  9
$ACADMAINTVER
 90
       55
  9
$DWGCODEPAGE
  3
ANSI_1252
  9
$LASTSAVEDBY
  1
Janno.Jarvpold
  9
$REQUIREDVERSIONS
160
                 0
  9
$INSBASE
 10
0.0
 20
0.0
 30
0.0
  9
$EXTMIN
 10
614992.8793735228
 20
6498370.206631226
 30
0.0
  9
$EXTMAX
 10
615720.0285766346
 20
6498931.375982522
 30
55.78800000000047
  9
$LIMMIN
 10
614993.0743292925
 20
6498370.267503155
  9
$LIMMAX
 10
615719.9552325223
 20
6498931.127941893
  9
$ORTHOMODE
 70
     0
  9
$REGENMODE
 70
     1
  9
$FILLMODE
 70
     1
  9
$QTEXTMODE
 70
     0
  9
$MIRRTEXT
 70
     1
  9
$LTSCALE
 40
1.0
  9
$ATTMODE
 70
     1
  9
$TEXTSIZE
 40
2.5
  9
$TRACEWID
 40
1.0
  9
$TEXTSTYLE
  7
Standard
  9
$CLAYER
  8
0
  9
$CELTYPE
  6
ByBlock
  9
$CECOLOR
 62
   256
  9
$CELTSCALE
 40
1.0
  9
$DISPSILH
 70
     0
  9
$DIMSCALE
 40
1.0
  9
$DIMASZ
 40
0.18
  9
$DIMEXO
 40
0.0625
  9
$DIMDLI
 40
0.38
  9
$DIMRND
 40
0.0
  9
$DIMDLE
 40
0.0
  9
$DIMEXE
 40
0.18
  9
$DIMTP
 40
0.0
  9
$DIMTM
 40
0.0
  9
$DIMTXT
 40
0.18
  9
$DIMCEN
 40
0.09
  9
$DIMTSZ
 40
0.0
  9
$DIMTOL
 70
     0
  9
$DIMLIM
 70
     0
  9
$DIMTIH
 70
     1
  9
$DIMTOH
 70
     1
  9
$DIMSE1
 70
     0
  9
$DIMSE2
 70
     0
  9
$DIMTAD
 70
     0
  9
$DIMZIN
 70
     8
  9
$DIMBLK
  1

  9
$DIMASO
 70
     1
  9
$DIMSHO
 70
     1
  9
$DIMPOST
  1

  9
$DIMAPOST
  1

  9
$DIMALT
 70
     0
  9
$DIMALTD
 70
     2
  9
$DIMALTF
 40
25.4
  9
$DIMLFAC
 40
1.0
  9
$DIMTOFL
 70
     1
  9
$DIMTVP
 40
0.0
  9
$DIMTIX
 70
     0
  9
$DIMSOXD
 70
     0
  9
$DIMSAH
 70
     0
  9
$DIMBLK1
  1

  9
$DIMBLK2
  1

  9
$DIMSTYLE
  2
STANDARD
  9
$DIMCLRD
 70
     0
  9
$DIMCLRE
 70
     0
  9
$DIMCLRT
 70
     0
  9
$DIMTFAC
 40
1.0
  9
$DIMGAP
 40
0.09
  9
$DIMJUST
 70
     0
  9
$DIMSD1
 70
     0
  9
$DIMSD2
 70
     0
  9
$DIMTOLJ
 70
     1
  9
$DIMTZIN
 70
     8
  9
$DIMALTZ
 70
     8
  9
$DIMALTTZ
 70
     8
  9
$DIMUPT
 70
     0
  9
$DIMDEC
 70
     4
  9
$DIMTDEC
 70
     4
  9
$DIMALTU
 70
     2
  9
$DIMALTTD
 70
     2
  9
$DIMTXSTY
  7
Standard
  9
$DIMAUNIT
 70
     0
  9
$DIMADEC
 70
     0
  9
$DIMALTRND
 40
0.0
  9
$DIMAZIN
 70
     2
  9
$DIMDSEP
 70
    46
  9
$DIMATFIT
 70
     3
  9
$DIMFRAC
 70
     0
  9
$DIMLDRBLK
  1

  9
$DIMLUNIT
 70
     2
  9
$DIMLWD
 70
    -2
  9
$DIMLWE
 70
    -2
  9
$DIMTMOVE
 70
     0
  9
$DIMFXL
 40
1.0
  9
$DIMFXLON
 70
     0
  9
$DIMJOGANG
 40
0.7853981633974483
  9
$DIMTFILL
 70
     0
  9
$DIMTFILLCLR
 70
     0
  9
$DIMARCSYM
 70
     0
  9
$DIMLTYPE
  6

  9
$DIMLTEX1
  6

  9
$DIMLTEX2
  6

  9
$DIMTXTDIRECTION
 70
     0
  9
$LUNITS
 70
     2
  9
$LUPREC
 70
     4
  9
$SKETCHINC
 40
1.0
  9
$FILLETRAD
 40
0.0
  9
$AUNITS
 70
     0
  9
$AUPREC
 70
     0
  9
$MENU
  1
.
  9
$ELEVATION
 40
0.0
  9
$PELEVATION
 40
0.0
  9
$THICKNESS
 40
0.0
  9
$LIMCHECK
 70
     0
  9
$CHAMFERA
 40
0.0
  9
$CHAMFERB
 40
0.0
  9
$CHAMFERC
 40
0.0
  9
$CHAMFERD
 40
0.0
  9
$SKPOLY
 70
     0
  9
$TDCREATE
 40
2460102.488505336
  9
$TDUCREATE
 40
2460102.363505336
  9
$TDUPDATE
 40
2460102.488505532
  9
$TDUUPDATE
 40
2460102.363505532
  9
$TDINDWG
 40
0.0000000116
  9
$TDUSRTIMER
 40
0.0000000116
  9
$USRTIMER
 70
     1
  9
$ANGBASE
 50
0.0
  9
$ANGDIR
 70
     0
  9
$PDMODE
 70
     0
  9
$PDSIZE
 40
0.0
  9
$PLINEWID
 40
0.0
  9
$SPLFRAME
 70
     0
  9
$SPLINETYPE
 70
     6
  9
$SPLINESEGS
 70
     8
  9
$HANDSEED
  5
A6A
  9
$SURFTAB1
 70
     6
  9
$SURFTAB2
 70
     6
  9
$SURFTYPE
 70
     6
  9
$SURFU
 70
     6
  9
$SURFV
 70
     6
  9
$UCSBASE
  2

  9
$UCSNAME
  2

  9
$UCSORG
 10
0.0
 20
0.0
 30
0.0
  9
$UCSXDIR
 10
1.0
 20
0.0
 30
0.0
  9
$UCSYDIR
 10
0.0
 20
1.0
 30
0.0
  9
$UCSORTHOREF
  2

  9
$UCSORTHOVIEW
 70
     0
  9
$UCSORGTOP
 10
0.0
 20
0.0
 30
0.0
  9
$UCSORGBOTTOM
 10
0.0
 20
0.0
 30
0.0
  9
$UCSORGLEFT
 10
0.0
 20
0.0
 30
0.0
  9
$UCSORGRIGHT
 10
0.0
 20
0.0
 30
0.0
  9
$UCSORGFRONT
 10
0.0
 20
0.0
 30
0.0
  9
$UCSORGBACK
 10
0.0
 20
0.0
 30
0.0
  9
$PUCSBASE
  2

  9
$PUCSNAME
  2

  9
$PUCSORG
 10
0.0
 20
0.0
 30
0.0
  9
$PUCSXDIR
 10
1.0
 20
0.0
 30
0.0
  9
$PUCSYDIR
 10
0.0
 20
1.0
 30
0.0
  9
$PUCSORTHOREF
  2

  9
$PUCSORTHOVIEW
 70
     0
  9
$PUCSORGTOP
 10
0.0
 20
0.0
 30
0.0
  9
$PUCSORGBOTTOM
 10
0.0
 20
0.0
 30
0.0
  9
$PUCSORGLEFT
 10
0.0
 20
0.0
 30
0.0
  9
$PUCSORGRIGHT
 10
0.0
 20
0.0
 30
0.0
  9
$PUCSORGFRONT
 10
0.0
 20
0.0
 30
0.0
  9
$PUCSORGBACK
 10
0.0
 20
0.0
 30
0.0
  9
$USERI1
 70
     0
  9
$USERI2
 70
     0
  9
$USERI3
 70
     0
  9
$USERI4
 70
     0
  9
$USERI5
 70
     0
  9
$USERR1
 40
0.0
  9
$USERR2
 40
0.0
  9
$USERR3
 40
0.0
  9
$USERR4
 40
0.0
  9
$USERR5
 40
0.0
  9
$WORLDVIEW
 70
     1
  9
$SHADEDGE
 70
     3
  9
$SHADEDIF
 70
    70
  9
$TILEMODE
 70
     1
  9
$MAXACTVP
 70
    64
  9
$PINSBASE
 10
0.0
 20
0.0
 30
0.0
  9
$PLIMCHECK
 70
     0
  9
$PEXTMIN
 10
1.000000000000000E+20
 20
1.000000000000000E+20
 30
1.000000000000000E+20
  9
$PEXTMAX
 10
-1.000000000000000E+20
 20
-1.000000000000000E+20
 30
-1.000000000000000E+20
  9
$PLIMMIN
 10
0.0
 20
0.0
  9
$PLIMMAX
 10
0.0
 20
0.0
  9
$UNITMODE
 70
     0
  9
$VISRETAIN
 70
     1
  9
$PLINEGEN
 70
     0
  9
$PSLTSCALE
 70
     0
  9
$TREEDEPTH
 70
  3020
  9
$CMLSTYLE
  2
Standard
  9
$CMLJUST
 70
     0
  9
$CMLSCALE
 40
20.0
  9
$PROXYGRAPHICS
 70
     1
  9
$MEASUREMENT
 70
     1
  9
$CELWEIGHT
370
    -1
  9
$ENDCAPS
280
     0
  9
$JOINSTYLE
280
     0
  9
$LWDISPLAY
290
     0
  9
$INSUNITS
 70
     4
  9
$HYPERLINKBASE
  1

  9
$STYLESHEET
  1

  9
$XEDIT
290
     1
  9
$CEPSNTYPE
380
     0
  9
$PSTYLEMODE
290
     1
  9
$FINGERPRINTGUID
  2
{2d09d4d6-9658-4a77-bc32-6ffdaec45b73}
  9
$VERSIONGUID
  2
{FAEB1C32-E019-11D5-929B-00C0DF256EC4}
  9
$EXTNAMES
290
     1
  9
$PSVPSCALE
 40
0.0
  9
$OLESTARTUP
290
     0
  9
$SORTENTS
280
   127
  9
$INDEXCTL
280
     0
  9
$HIDETEXT
280
     1
  9
$XCLIPFRAME
280
     0
  9
$HALOGAP
280
     0
  9
$OBSCOLOR
 70
   257
  9
$OBSLTYPE
280
     0
  9
$INTERSECTIONDISPLAY
280
     0
  9
$INTERSECTIONCOLOR
 70
   257
  9
$DIMASSOC
280
     2
  9
$PROJECTNAME
  1

  9
$CAMERADISPLAY
290
     0
  9
$LENSLENGTH
 40
50.0
  9
$CAMERAHEIGHT
 40
0.0
  9
$STEPSPERSEC
 40
2.0
  9
$STEPSIZE
 40
6.0
  9
$3DDWFPREC
 40
2.0
  9
$PSOLWIDTH
 40
5.0
  9
$PSOLHEIGHT
 40
80.0
  9
$LOFTANG1
 40
1.570796326794897
  9
$LOFTANG2
 40
1.570796326794897
  9
$LOFTMAG1
 40
0.0
  9
$LOFTMAG2
 40
0.0
  9
$LOFTPARAM
 70
     7
  9
$LOFTNORMALS
280
     1
  9
$LATITUDE
 40
37.795
  9
$LONGITUDE
 40
-122.394
  9
$NORTHDIRECTION
 40
0.0
  9
$TIMEZONE
 70
 -8000
  9
$LIGHTGLYPHDISPLAY
280
     1
  9
$TILEMODELIGHTSYNCH
280
     1
  9
$CMATERIAL
347
A2C
  9
$SOLIDHIST
280
     0
  9
$SHOWHIST
280
     1
  9
$DWFFRAME
280
     2
  9
$DGNFRAME
280
     2
  9
$REALWORLDSCALE
290
     1
  9
$INTERFERECOLOR
 62
   256
  9
$CSHADOW
280
     0
  9
$SHADOWPLANELOCATION
 40
0.0
  0
ENDSEC
  0
SECTION
  2
CLASSES
  0
CLASS
  1
ACDBDICTIONARYWDFLT
  2
AcDbDictionaryWithDefault
  3
ObjectDBX Classes
 90
        0
 91
        3
280
     0
281
     0
  0
CLASS
  1
VISUALSTYLE
  2
AcDbVisualStyle
  3
ObjectDBX Classes
 90
     4095
 91
        3
280
     0
281
     0
  0
CLASS
  1
MATERIAL
  2
AcDbMaterial
  3
ObjectDBX Classes
 90
     1153
 91
        3
280
     0
281
     0
  0
CLASS
  1
SCALE
  2
AcDbScale
  3
ObjectDBX Classes
 90
     1153
 91
        3
280
     0
281
     0
  0
CLASS
  1
TABLESTYLE
  2
AcDbTableStyle
  3
ObjectDBX Classes
 90
     4095
 91
        3
280
     0
281
     0
  0
CLASS
  1
MLEADERSTYLE
  2
AcDbMLeaderStyle
  3
ACDB_MLEADERSTYLE_CLASS
 90
     4095
 91
        3
280
     0
281
     0
  0
CLASS
  1
SUN
  2
AcDbSun
  3
SCENEOE
 90
     1153
 91
        3
280
     0
281
     0
  0
CLASS
  1
DICTIONARYVAR
  2
AcDbDictionaryVar
  3
ObjectDBX Classes
 90
        0
 91
        3
280
     0
281
     0
  0
CLASS
  1
CELLSTYLEMAP
  2
AcDbCellStyleMap
  3
ObjectDBX Classes
 90
     1152
 91
        3
280
     0
281
     0
  0
ENDSEC
  0
SECTION
  2
TABLES
  0
TABLE
  2
VPORT
  5
9F1
330
0
100
AcDbSymbolTable
 70
     1
  0
VPORT
  5
A11
330
9F1
100
AcDbSymbolTableRecord
100
AcDbViewportTableRecord
  2
*Active
 70
     0
 10
0.0
 20
0.0
 11
1.0
 21
1.0
 12
615356.4539750786
 22
6498650.791306874
 13
0.0
 23
0.0
 14
1.0
 24
1.0
 15
0.0
 25
0.0
 16
0.0
 26
0.0
 36
1.0
 17
0.0
 27
0.0
 37
0.0
 40
561.169351295568
 41
2.493079584775086
 42
50.0
 43
0.0
 44
0.0
 50
0.0
 51
0.0
 71
     0
 72
   100
 73
     1
 74
     3
 75
     0
 76
     0
 77
     0
 78
     0
281
     0
 65
     1
110
0.0
120
0.0
130
0.0
111
1.0
121
0.0
131
0.0
112
0.0
122
1.0
132
0.0
 79
     0
146
0.0
348
A17
 60
     3
 61
     5
292
     1
282
     1
141
0.0
142
0.0
 63
   250
361
A45
  0
ENDTAB
  0
TABLE
  2
LTYPE
  5
9EE
330
0
100
AcDbSymbolTable
 70
    10
  0
LTYPE
  5
9FC
330
9EE
100
AcDbSymbolTableRecord
100
AcDbLinetypeTableRecord
  2
ByBlock
 70
     0
  3

 72
    65
 73
     0
 40
0.0
  0
LTYPE
  5
9FD
330
9EE
100
AcDbSymbolTableRecord
100
AcDbLinetypeTableRecord
  2
ByLayer
 70
     0
  3

 72
    65
 73
     0
 40
0.0
  0
LTYPE
  5
9FE
330
9EE
100
AcDbSymbolTableRecord
100
AcDbLinetypeTableRecord
  2
Continuous
 70
     0
  3
Solid line
 72
    65
 73
     0
 40
0.0
  0
LTYPE
  5
2
330
9EE
100
AcDbSymbolTableRecord
100
AcDbLinetypeTableRecord
  2
DASH1
 70
     0
  3

 72
    65
 73
     2
 40
10.10559349078149
 49
2.887312425937568
 74
     0
 49
-7.218281064843922
 74
     0
  0
LTYPE
  5
3
330
9EE
100
AcDbSymbolTableRecord
100
AcDbLinetypeTableRecord
  2
DASH2
 70
     0
  3

 72
    65
 73
     2
 40
10.10559349078149
 49
7.218281064843922
 74
     0
 49
-2.887312425937568
 74
     0
  0
LTYPE
  5
4
330
9EE
100
AcDbSymbolTableRecord
100
AcDbLinetypeTableRecord
  2
DASH3
 70
     0
  3

 72
    65
 73
     2
 40
14.43656212968784
 49
11.54924970375027
 74
     0
 49
-2.887312425937568
 74
     0
  0
LTYPE
  5
5
330
9EE
100
AcDbSymbolTableRecord
100
AcDbLinetypeTableRecord
  2
DASH4
 70
     0
  3

 72
    65
 73
     4
 40
14.43656212968784
 49
7.218281064843922
 74
     0
 49
-2.887312425937568
 74
     0
 49
1.443656212968784
 74
     0
 49
-2.887312425937568
 74
     0
  0
LTYPE
  5
6
330
9EE
100
AcDbSymbolTableRecord
100
AcDbLinetypeTableRecord
  2
DASH5
 70
     0
  3

 72
    65
 73
     2
 40
7.218281064843922
 49
4.330968638906353
 74
     0
 49
-2.887312425937568
 74
     0
  0
LTYPE
  5
7
330
9EE
100
AcDbSymbolTableRecord
100
AcDbLinetypeTableRecord
  2
DASH6
 70
     0
  3

 72
    65
 73
     6
 40
18.7675307685942
 49
7.218281064843922
 74
     0
 49
-2.887312425937568
 74
     0
 49
1.443656212968784
 74
     0
 49
-2.887312425937568
 74
     0
 49
1.443656212968784
 74
     0
 49
-2.887312425937568
 74
     0
  0
LTYPE
  5
8
330
9EE
100
AcDbSymbolTableRecord
100
AcDbLinetypeTableRecord
  2
DASH7
 70
     0
  3

 72
    65
 73
     4
 40
18.7675307685942
 49
10.10559349078149
 74
     0
 49
-2.887312425937568
 74
     0
 49
2.887312425937568
 74
     0
 49
-2.887312425937568
 74
     0
  0
LTYPE
  5
9
330
9EE
100
AcDbSymbolTableRecord
100
AcDbLinetypeTableRecord
  2
DASH8
 70
     0
  3

 72
    65
 73
     0
 40
0.0
  0
LTYPE
  5
A
330
9EE
100
AcDbSymbolTableRecord
100
AcDbLinetypeTableRecord
  2
DASH9
 70
     0
  3

 72
    65
 73
     2
 40
4.330968638906352
 49
1.443656212968784
 74
     0
 49
-2.887312425937568
 74
     0
  0
ENDTAB
  0
TABLE
  2
LAYER
  5
9EC
330
0
100
AcDbSymbolTable
 70
    16
  0
LAYER
  5
9F9
330
9EC
100
AcDbSymbolTableRecord
100
AcDbLayerTableRecord
  2
0
 70
     0
 62
     7
  6
Continuous
370
    -3
390
9F8
347
A2E
348
0
  0
LAYER
  5
1F
330
9EC
100
AcDbSymbolTableRecord
100
AcDbLayerTableRecord
  2
Privateproperty
 70
     0
 62
    40
  6
Continuous
370
    -3
390
9F8
347
A2E
348
0
  0
LAYER
  5
1D0
330
9EC
100
AcDbSymbolTableRecord
100
AcDbLayerTableRecord
  2
Stateownedproperty
 70
     0
 62
     7
  6
Continuous
370
    -3
390
9F8
347
A2E
348
0
  0
LAYER
  5
229
330
9EC
100
AcDbSymbolTableRecord
100
AcDbLayerTableRecord
  2
Municipalproperty
 70
     0
 62
    80
  6
Continuous
370
    -3
390
9F8
347
A2E
348
0
  0
LAYER
  5
270
330
9EC
100
AcDbSymbolTableRecord
100
AcDbLayerTableRecord
  2
CustomerBuilding
 70
     0
 62
   252
  6
Continuous
370
    -3
390
9F8
347
A2E
348
0
  0
LAYER
  5
4DD
330
9EC
100
AcDbSymbolTableRecord
100
AcDbLayerTableRecord
  2
Connectionmanhole_fiber
 70
     0
 62
     7
  6
Continuous
370
    -3
390
9F8
347
A2E
348
0
  0
LAYER
  5
52E
330
9EC
100
AcDbSymbolTableRecord
100
AcDbLayerTableRecord
  2
Customernode
 70
     0
 62
    72
  6
Continuous
370
    -3
390
9F8
347
A2E
348
0
  0
LAYER
  5
553
330
9EC
100
AcDbSymbolTableRecord
100
AcDbLayerTableRecord
  2
Prospectnode
 70
     0
 62
    72
  6
Continuous
370
    -3
390
9F8
347
A2E
348
0
  0
LAYER
  5
58E
330
9EC
100
AcDbSymbolTableRecord
100
AcDbLayerTableRecord
  2
Outdoorcabinet
 70
     0
 62
     7
  6
Continuous
370
    -3
390
9F8
347
A2E
348
0
  0
LAYER
  5
590
330
9EC
100
AcDbSymbolTableRecord
100
AcDbLayerTableRecord
  2
Route_aerial
 70
     0
 62
     7
  6
Continuous
370
    -3
390
9F8
347
A2E
348
0
  0
LAYER
  5
5AA
330
9EC
100
AcDbSymbolTableRecord
100
AcDbLayerTableRecord
  2
Drop_offpointLP
 70
     0
 62
     7
  6
Continuous
370
    -3
390
9F8
347
A2E
348
0
  0
LAYER
  5
5B6
330
9EC
100
AcDbSymbolTableRecord
100
AcDbLayerTableRecord
  2
Route_ground_uncertainlocation
 70
     0
 62
     5
  6
DASH2
370
    -3
390
9F8
347
A2E
348
0
  0
LAYER
  5
5BB
330
9EC
100
AcDbSymbolTableRecord
100
AcDbLayerTableRecord
  2
Route_easy_uncertainlocation_
 70
     0
 62
   160
  6
DASH2
370
    -3
390
9F8
347
A2E
348
0
  0
LAYER
  5
5C8
330
9EC
100
AcDbSymbolTableRecord
100
AcDbLayerTableRecord
  2
Route_hard_uncertainlocation_
 70
     0
 62
     5
  6
DASH2
370
    -3
390
9F8
347
A2E
348
0
  0
LAYER
  5
5E3
330
9EC
100
AcDbSymbolTableRecord
100
AcDbLayerTableRecord
  2
Route_drilled_uncertainlocatio
 70
     0
 62
   160
  6
DASH2
370
    -3
390
9F8
347
A2E
348
0
  0
LAYER
  5
6BE
330
9EC
100
AcDbSymbolTableRecord
100
AcDbLayerTableRecord
  2
Pipenode
 70
     0
 62
     7
  6
Continuous
370
    -3
390
9F8
347
A2E
348
0
  0
ENDTAB
  0
TABLE
  2
STYLE
  5
9ED
330
0
100
AcDbSymbolTable
 70
     4
  0
STYLE
  5
9FA
330
9ED
100
AcDbSymbolTableRecord
100
AcDbTextStyleTableRecord
  2
Standard
 70
     0
 40
0.0
 41
1.0
 50
0.0
 71
     0
 42
2.5
  3
arial.ttf
  4

1001
ACAD
1000
Arial
1071
        0
  0
STYLE
  5
750
330
9ED
100
AcDbSymbolTableRecord
100
AcDbTextStyleTableRecord
  2
BOLD
 70
     0
 40
0.0
 41
1.0
 50
0.0
 71
     0
 42
2.5
  3
arialbd.ttf
  4

1001
ACAD
1000
Arial
1071
 33554432
  0
STYLE
  5
751
330
9ED
100
AcDbSymbolTableRecord
100
AcDbTextStyleTableRecord
  2
ITALIC
 70
     0
 40
0.0
 41
1.0
 50
0.0
 71
     0
 42
2.5
  3
ariali.ttf
  4

1001
ACAD
1000
Arial
1071
        0
  0
STYLE
  5
752
330
9ED
100
AcDbSymbolTableRecord
100
AcDbTextStyleTableRecord
  2
BOLD_ITALIC
 70
     0
 40
0.0
 41
1.0
 50
0.0
 71
     0
 42
2.5
  3
arialbi.ttf
  4

1001
ACAD
1000
Arial
1071
 33554432
  0
ENDTAB
  0
TABLE
  2
VIEW
  5
9EF
330
0
100
AcDbSymbolTable
 70
     0
  0
ENDTAB
  0
TABLE
  2
UCS
  5
9F0
330
0
100
AcDbSymbolTable
 70
     0
  0
ENDTAB
  0
TABLE
  2
APPID
  5
9F2
330
0
100
AcDbSymbolTable
 70
     1
  0
APPID
  5
9FB
330
9F2
100
AcDbSymbolTableRecord
100
AcDbRegAppTableRecord
  2
ACAD
 70
     0
  0
ENDTAB
  0
TABLE
  2
DIMSTYLE
  5
9F3
330
0
100
AcDbSymbolTable
 70
     1
100
AcDbDimStyleTable
  0
DIMSTYLE
105
A0F
330
9F3
100
AcDbSymbolTableRecord
100
AcDbDimStyleTableRecord
  2
STANDARD
 70
     0
 78
     8
 79
     2
172
     1
178
     0
284
     8
285
     8
286
     8
340
9FA
  0
ENDTAB
  0
TABLE
  2
BLOCK_RECORD
  5
9EB
330
0
100
AcDbSymbolTable
 70
     6
  0
BLOCK_RECORD
  5
A07
330
9EB
100
AcDbSymbolTableRecord
100
AcDbBlockTableRecord
  2
*Model_Space
340
A0A
 70
     0
280
     1
281
     0
  0
BLOCK_RECORD
  5
A46
330
9EB
100
AcDbSymbolTableRecord
100
AcDbBlockTableRecord
  2
*Paper_Space
340
A47
 70
     0
280
     1
281
     0
  0
BLOCK_RECORD
  5
52C
330
9EB
100
AcDbSymbolTableRecord
100
AcDbBlockTableRecord
  2
BASCELB_-16777216_f
340
0
102
{BLKREFS
331
52D
102
}
 70
     0
280
     1
281
     0
  0
BLOCK_RECORD
  5
53B
330
9EB
100
AcDbSymbolTableRecord
100
AcDbBlockTableRecord
  2
PIPINGPIPE_-9710080_f
340
0
102
{BLKREFS
331
53C
331
53D
331
53E
331
53F
331
540
331
541
331
550
331
551
331
552
102
}
 70
     0
280
     1
281
     0
  0
BLOCK_RECORD
  5
54E
330
9EB
100
AcDbSymbolTableRecord
100
AcDbBlockTableRecord
  2
PIPINGPIPE_-16748289_f
340
0
102
{BLKREFS
331
54F
102
}
 70
     0
280
     1
281
     0
  0
BLOCK_RECORD
  5
562
330
9EB
100
AcDbSymbolTableRecord
100
AcDbBlockTableRecord
  2
OPTOODF_-9710080_f
340
0
102
{BLKREFS
331
563
331
581
331
589
102
}
 70
     0
280
     1
281
     0
  0
BLOCK_RECORD
  5
572
330
9EB
100
AcDbSymbolTableRecord
100
AcDbBlockTableRecord
  2
OPTOODF_-16777216_f
340
0
102
{BLKREFS
331
573
331
574
331
575
331
576
331
577
331
578
331
579
331
57A
331
57B
331
57C
331
57D
331
57E
331
57F
331
580
331
582
331
583
331
584
331
585
331
586
331
587
331
588
331
58A
331
58B
331
58C
331
58D
331
58F
102
}
 70
     0
280
     1
281
     0
  0
BLOCK_RECORD
  5
6B2
330
9EB
100
AcDbSymbolTableRecord
100
AcDbBlockTableRecord
  2
BASCELSFIX_-16777216_f
340
0
102
{BLKREFS
331
6B3
331
6B4
331
6B5
331
6B6
331
6B7
331
6B8
331
6B9
331
6BA
331
6BB
331
6BC
331
6BD
102
}
 70
     0
280
     1
281
     0
  0
ENDTAB
  0
ENDSEC
  0
SECTION
  2
BLOCKS
  0
BLOCK
  5
A08
330
A07
100
AcDbEntity
  8
0
100
AcDbBlockBegin
  2
*Model_Space
 70
     0
 10
0.0
 20
0.0
 30
0.0
  3
*Model_Space
  1

  0
ENDBLK
  5
A09
330
A07
100
AcDbEntity
  8
0
100
AcDbBlockEnd
  0
BLOCK
  5
A56
330
A46
100
AcDbEntity
 67
     1
  8
0
100
AcDbBlockBegin
  2
*Paper_Space
 70
     0
 10
0.0
 20
0.0
 30
0.0
  3
*Paper_Space
  1

  0
ENDBLK
  5
A57
330
A46
100
AcDbEntity
 67
     1
  8
0
100
AcDbBlockEnd
  0
BLOCK
  5
A4A
330
52C
100
AcDbEntity
  8
0
100
AcDbBlockBegin
  2
BASCELB_-16777216_f
 70
     0
 10
0.0
 20
0.0
 30
0.0
  3
BASCELB_-16777216_f
  1

  0
HATCH
  5
527
330
52C
100
AcDbEntity
  8
Connectionmanhole_fiber
 62
     0
100
AcDbHatch
 10
0.0
 20
0.0
 30
0.0
210
0.0
220
0.0
230
1.0
  2
SOLID
 70
     1
 71
     0
 91
        3
 92
        3
 72
     1
 73
     1
 93
       15
 10
-0.3986714115207676
 20
0.47508942808548
 42
0.0
 10
-0.3986714115207676
 20
-0.5242366103012194
 42
0.0
 10
0.0065355969101765
 20
-0.5242366103012194
 42
0.0163142813018737
 10
0.3006374578681197
 20
-0.5187758122772483
 42
0.1046941104863264
 10
0.4640273806225326
 20
-0.469628630061509
 42
0.1383321741394994
 10
0.5653291327302686
 20
-0.3658734676060594
 42
0.1276952217752877
 10
0.6012749157362395
 20
-0.2348143150307545
 42
0.1914874087882492
 10
0.5424545435446508
 20
-0.0819119703595655
 42
0.1626265469769945
 10
0.3790646207902379
 20
0.005460798023971
 42
0.1195093953572851
 10
0.4967053651734152
 20
0.0955639654194931
 42
0.174989078011824
 10
0.5424545435446508
 20
0.2238927189828125
 42
0.156253144414064
 10
0.50650876053868
 20
0.3412998764981897
 42
0.1096936773285788
 10
0.4150104037962088
 20
0.4259422458697407
 42
0.1049284850864818
 10
0.2908340625028549
 20
0.4668982310495235
 42
0.0268977389567194
 10
0.0784271629221182
 20
0.47508942808548
 42
0.0
 97
        0
 92
       18
 72
     1
 73
     1
 93
        9
 10
-0.1568543258442364
 20
-0.0873727683835366
 42
0.0
 10
0.0392135814610591
 20
-0.0873727683835366
 42
-0.052977876716737
 10
0.2516204810417959
 20
-0.1010247634434642
 42
-0.160519677469512
 10
0.3267798455088258
 20
-0.147441546647218
 42
-0.1749662414428109
 10
0.3529222331495319
 20
-0.2238927189828125
 42
-0.2175537221772447
 10
0.3202442485986493
 20
-0.3085350883543635
 42
-0.1411689891357515
 10
0.2287458918561781
 20
-0.3494910735341463
 42
-0.0293295940449145
 10
0.0653559691017651
 20
-0.3549518715581173
 42
0.0
 10
-0.1568543258442364
 20
-0.3549518715581173
 42
0.0
 97
        0
 92
       18
 72
     1
 73
     1
 93
        9
 10
-0.1568543258442364
 20
0.3112654873663491
 42
0.0
 10
-0.0196067907305295
 20
0.3112654873663491
 42
-0.0234847858635695
 10
0.189532310395119
 20
0.305804689342378
 42
-0.17914370228214
 10
0.2777628686825019
 20
0.2703095021865662
 42
-0.2039745241105742
 10
0.3071730547782963
 20
0.1965887288629573
 42
-0.2336729408475319
 10
0.2712272717723254
 20
0.1174071575153773
 42
-0.1539473833803791
 10
0.1764611165747659
 20
0.0819119703595655
 42
-0.027945253601015
 10
0.0
 20
0.0764511723355945
 42
0.0
 10
-0.1568543258442364
 20
0.0764511723355945
 42
0.0
 97
        0
 75
     0
 76
     1
 98
        0
  0
LWPOLYLINE
  5
528
330
52C
100
AcDbEntity
  8
Connectionmanhole_fiber
 62
     7
100
AcDbPolyline
 90
       15
 70
     1
 43
0.0
 10
-0.3986714115207676
 20
0.47508942808548
 10
-0.3986714115207676
 20
-0.5242366103012194
 10
0.0065355969101765
 20
-0.5242366103012194
 42
0.0163142813018737
 10
0.3006374578681197
 20
-0.5187758122772483
 42
0.1046941104863264
 10
0.4640273806225326
 20
-0.469628630061509
 42
0.1383321741394994
 10
0.5653291327302686
 20
-0.3658734676060594
 42
0.1276952217752877
 10
0.6012749157362395
 20
-0.2348143150307545
 42
0.1914874087882492
 10
0.5424545435446508
 20
-0.0819119703595655
 42
0.1626265469769945
 10
0.3790646207902379
 20
0.005460798023971
 42
0.1195093953572851
 10
0.4967053651734152
 20
0.0955639654194931
 42
0.174989078011824
 10
0.5424545435446508
 20
0.2238927189828125
 42
0.156253144414064
 10
0.50650876053868
 20
0.3412998764981897
 42
0.1096936773285788
 10
0.4150104037962088
 20
0.4259422458697407
 42
0.1049284850864818
 10
0.2908340625028549
 20
0.4668982310495235
 42
0.0268977389567194
 10
0.0784271629221182
 20
0.47508942808548
  0
LWPOLYLINE
  5
529
330
52C
100
AcDbEntity
  8
Connectionmanhole_fiber
 62
     7
100
AcDbPolyline
 90
        9
 70
     1
 43
0.0
 10
-0.1568543258442364
 20
-0.0873727683835366
 10
0.0392135814610591
 20
-0.0873727683835366
 42
-0.052977876716737
 10
0.2516204810417959
 20
-0.1010247634434642
 42
-0.160519677469512
 10
0.3267798455088258
 20
-0.147441546647218
 42
-0.1749662414428109
 10
0.3529222331495319
 20
-0.2238927189828125
 42
-0.2175537221772447
 10
0.3202442485986493
 20
-0.3085350883543635
 42
-0.1411689891357515
 10
0.2287458918561781
 20
-0.3494910735341463
 42
-0.0293295940449145
 10
0.0653559691017651
 20
-0.3549518715581173
 10
-0.1568543258442364
 20
-0.3549518715581173
  0
LWPOLYLINE
  5
52A
330
52C
100
AcDbEntity
  8
Connectionmanhole_fiber
 62
     7
100
AcDbPolyline
 90
        9
 70
     1
 43
0.0
 10
-0.1568543258442364
 20
0.3112654873663491
 10
-0.0196067907305295
 20
0.3112654873663491
 42
-0.0234847858635695
 10
0.189532310395119
 20
0.305804689342378
 42
-0.17914370228214
 10
0.2777628686825019
 20
0.2703095021865662
 42
-0.2039745241105742
 10
0.3071730547782963
 20
0.1965887288629573
 42
-0.2336729408475319
 10
0.2712272717723254
 20
0.1174071575153773
 42
-0.1539473833803791
 10
0.1764611165747659
 20
0.0819119703595655
 42
-0.027945253601015
 10
0.0
 20
0.0764511723355945
 10
-0.1568543258442364
 20
0.0764511723355945
  0
ENDBLK
  5
A4B
330
52C
100
AcDbEntity
  8
0
100
AcDbBlockEnd
  0
BLOCK
  5
A4C
330
53B
100
AcDbEntity
  8
0
100
AcDbBlockBegin
  2
PIPINGPIPE_-9710080_f
 70
     0
 10
0.0
 20
0.0
 30
0.0
  3
PIPINGPIPE_-9710080_f
  1

  0
HATCH
  5
538
330
53B
100
AcDbEntity
  8
Customernode
 62
    72
100
AcDbHatch
 10
0.0
 20
0.0
 30
0.0
210
0.0
220
0.0
230
1.0
  2
SOLID
 70
     1
 71
     0
 91
        1
 92
        3
 72
     1
 73
     1
 93
        2
 10
0.5
 20
0.0
 42
0.9999999999999999
 10
-0.5
 20
0.0
 42
0.9999999999999999
 97
        0
 75
     0
 76
     1
 98
        0
  0
LWPOLYLINE
  5
539
330
53B
100
AcDbEntity
  8
Customernode
 62
    72
100
AcDbPolyline
 90
        3
 70
     0
 43
0.7218281030654907
 10
0.5
 20
0.0
 42
0.9999999999999999
 10
-0.5
 20
0.0
 42
0.9999999999999999
 10
0.5
 20
0.0
  0
ENDBLK
  5
A4D
330
53B
100
AcDbEntity
  8
0
100
AcDbBlockEnd
  0
BLOCK
  5
A4E
330
54E
100
AcDbEntity
  8
0
100
AcDbBlockBegin
  2
PIPINGPIPE_-16748289_f
 70
     0
 10
0.0
 20
0.0
 30
0.0
  3
PIPINGPIPE_-16748289_f
  1

  0
HATCH
  5
54B
330
54E
100
AcDbEntity
  8
Customernode
 62
   150
100
AcDbHatch
 10
0.0
 20
0.0
 30
0.0
210
0.0
220
0.0
230
1.0
  2
SOLID
 70
     1
 71
     0
 91
        1
 92
        3
 72
     1
 73
     1
 93
        2
 10
0.5
 20
0.0
 42
0.9999999999999999
 10
-0.5
 20
0.0
 42
0.9999999999999999
 97
        0
 75
     0
 76
     1
 98
        0
  0
LWPOLYLINE
  5
54C
330
54E
100
AcDbEntity
  8
Customernode
 62
   150
100
AcDbPolyline
 90
        3
 70
     0
 43
0.7218281030654907
 10
0.5
 20
0.0
 42
0.9999999999999999
 10
-0.5
 20
0.0
 42
0.9999999999999999
 10
0.5
 20
0.0
  0
ENDBLK
  5
A4F
330
54E
100
AcDbEntity
  8
0
100
AcDbBlockEnd
  0
BLOCK
  5
A50
330
562
100
AcDbEntity
  8
0
100
AcDbBlockBegin
  2
OPTOODF_-9710080_f
 70
     0
 10
0.0
 20
0.0
 30
0.0
  3
OPTOODF_-9710080_f
  1

  0
HATCH
  5
55F
330
562
100
AcDbEntity
  8
Prospectnode
 62
    72
100
AcDbHatch
 10
0.0
 20
0.0
 30
0.0
210
0.0
220
0.0
230
1.0
  2
SOLID
 70
     1
 71
     0
 91
        1
 92
        3
 72
     0
 73
     1
 93
        4
 10
-0.4999999999999999
 20
0.5
 10
0.5
 20
0.5
 10
0.5
 20
-0.5
 10
-0.4999999999999999
 20
-0.5
 97
        0
 75
     0
 76
     1
 98
        0
  0
LWPOLYLINE
  5
560
330
562
100
AcDbEntity
  8
Prospectnode
 62
    72
100
AcDbPolyline
 90
        4
 70
     1
 43
0.7218281030654907
 10
-0.4999999999999999
 20
0.5
 10
0.5
 20
0.5
 10
0.5
 20
-0.5
 10
-0.4999999999999999
 20
-0.5
  0
ENDBLK
  5
A51
330
562
100
AcDbEntity
  8
0
100
AcDbBlockEnd
  0
BLOCK
  5
A52
330
572
100
AcDbEntity
  8
0
100
AcDbBlockBegin
  2
OPTOODF_-16777216_f
 70
     0
 10
0.0
 20
0.0
 30
0.0
  3
OPTOODF_-16777216_f
  1

  0
HATCH
  5
56F
330
572
100
AcDbEntity
  8
Prospectnode
 62
     0
100
AcDbHatch
 10
0.0
 20
0.0
 30
0.0
210
0.0
220
0.0
230
1.0
  2
SOLID
 70
     1
 71
     0
 91
        1
 92
        3
 72
     0
 73
     1
 93
        4
 10
-0.4999999999999999
 20
0.5
 10
0.5
 20
0.5
 10
0.5
 20
-0.5
 10
-0.4999999999999999
 20
-0.5
 97
        0
 75
     0
 76
     1
 98
        0
  0
LWPOLYLINE
  5
570
330
572
100
AcDbEntity
  8
Prospectnode
 62
     7
100
AcDbPolyline
 90
        4
 70
     1
 43
0.7218281030654907
 10
-0.4999999999999999
 20
0.5
 10
0.5
 20
0.5
 10
0.5
 20
-0.5
 10
-0.4999999999999999
 20
-0.5
  0
ENDBLK
  5
A53
330
572
100
AcDbEntity
  8
0
100
AcDbBlockEnd
  0
BLOCK
  5
A54
330
6B2
100
AcDbEntity
  8
0
100
AcDbBlockBegin
  2
BASCELSFIX_-16777216_f
 70
     0
 10
0.0
 20
0.0
 30
0.0
  3
BASCELSFIX_-16777216_f
  1

  0
HATCH
  5
6AD
330
6B2
100
AcDbEntity
  8
Drop_offpointLP
 62
     0
100
AcDbHatch
 10
0.0
 20
0.0
 30
0.0
210
0.0
220
0.0
230
1.0
  2
SOLID
 70
     1
 71
     0
 91
        1
 92
        3
 72
     1
 73
     1
 93
        2
 10
0.5
 20
0.0
 42
0.9999999999999999
 10
-0.5
 20
0.0
 42
0.9999999999999999
 97
        0
 75
     0
 76
     1
 98
        0
  0
LWPOLYLINE
  5
6AE
330
6B2
100
AcDbEntity
  8
Drop_offpointLP
 62
     7
100
AcDbPolyline
 90
        3
 70
     0
 43
0.0
 10
0.5
 20
0.0
 42
0.9999999999999999
 10
-0.5
 20
0.0
 42
0.9999999999999999
 10
0.5
 20
0.0
  0
LWPOLYLINE
  5
6AF
330
6B2
100
AcDbEntity
  8
Drop_offpointLP
 62
     7
100
AcDbPolyline
 90
        2
 70
     0
 43
0.0
 10
-0.5
 20
0.0
 10
0.5
 20
0.0
  0
LWPOLYLINE
  5
6B0
330
6B2
100
AcDbEntity
  8
Drop_offpointLP
 62
     7
100
AcDbPolyline
 90
        2
 70
     0
 43
0.0
 10
0.0
 20
0.5
 10
0.0
 20
-0.5
  0
ENDBLK
  5
A55
330
6B2
100
AcDbEntity
  8
0
100
AcDbBlockEnd
  0
ENDSEC
  0
SECTION
  2
ENTITIES
  0
LWPOLYLINE
  5
27
330
A07
100
AcDbEntity
  8
Privateproperty
  6
Continuous
 62
    40
100
AcDbPolyline
 90
        4
 70
     0
 43
0.5
 10
614993.0743292925
 20
6498627.208245644
 10
615027.2799999985
 20
6498644.75
 10
615011.7899999985
 20
6498663.899999999
 10
614993.0743292925
 20
6498687.214556833
  0
LWPOLYLINE
  5
43
330
A07
100
AcDbEntity
  8
Privateproperty
  6
Continuous
 62
    40
100
AcDbPolyline
 90
       14
 70
     0
 43
0.5
 10
615430.4600000009
 20
6498493.989999998
 10
615423.6900000009
 20
6498481.279999998
 10
615420.1800000009
 20
6498467.039999998
 10
615450.9100000008
 20
6498461.699999998
 10
615450.2300000009
 20
6498457.659999998
 10
615468.0100000009
 20
6498456.609999998
 10
615467.9200000009
 20
6498454.679999999
 10
615481.9900000009
 20
6498453.589999998
 10
615549.4700000009
 20
6498451.829999998
 10
615571.5800000009
 20
6498476.439999999
 10
615486.1800000009
 20
6498478.549999998
 10
615461.640000001
 20
6498484.579999998
 10
615459.8200000009
 20
6498481.639999999
 10
615430.4600000009
 20
6498493.989999998
  0
LWPOLYLINE
  5
4D
330
A07
100
AcDbEntity
  8
Privateproperty
  6
Continuous
 62
    40
100
AcDbPolyline
 90
        5
 70
     0
 43
0.5
 10
615719.9552325223
 20
6498746.196415953
 10
615678.8200000036
 20
6498758.82
 10
615642.4400000036
 20
6498657.9
 10
615623.9600000036
 20
6498607.07
 10
615719.9552325223
 20
6498579.338136862
  0
LWPOLYLINE
  5
5B
330
A07
100
AcDbEntity
  8
Privateproperty
  6
Continuous
 62
    40
100
AcDbPolyline
 90
        7
 70
     0
 43
0.5
 10
615247.049999997
 20
6498724.370000001
 10
615209.049999997
 20
6498717.990000001
 10
615212.0999999971
 20
6498676.010000001
 10
615212.1099999971
 20
6498653.980000001
 10
615257.379999997
 20
6498657.870000001
 10
615254.8599999971
 20
6498674.080000001
 10
615247.049999997
 20
6498724.370000001
  0
LWPOLYLINE
  5
75
330
A07
100
AcDbEntity
  8
Privateproperty
  6
Continuous
 62
    40
100
AcDbPolyline
 90
       13
 70
     0
 43
0.5
 10
615390.5
 20
6498710.780000001
 10
615392.62
 20
6498722.500000001
 10
615383.58
 20
6498724.850000001
 10
615274.28
 20
6498836.710000001
 10
615223.2
 20
6498808.250000001
 10
615290.75
 20
6498735.160000001
 10
615247.05
 20
6498724.370000001
 10
615254.86
 20
6498674.080000001
 10
615257.38
 20
6498657.870000001
 10
615333.11
 20
6498660.000000001
 10
615401.45
 20
6498669.500000001
 10
615391.38
 20
6498696.150000001
 10
615390.5
 20
6498710.780000001
  0
LWPOLYLINE
  5
8B
330
A07
100
AcDbEntity
  8
Privateproperty
  6
Continuous
 62
    40
100
AcDbPolyline
 90
       11
 70
     0
 43
0.5
 10
615576.8200000003
 20
6498915.07
 10
615565.3000000003
 20
6498914.760000001
 10
615541.7300000003
 20
6498909.53
 10
615544.0200000003
 20
6498905.36
 10
615541.3700000003
 20
6498797.65
 10
615674.1500000003
 20
6498759.84
 10
615716.8300000003
 20
6498884.15
 10
615632.1700000003
 20
6498899.62
 10
615632.6400000002
 20
6498901.91
 10
615610.7900000003
 20
6498909.66
 10
615576.8200000003
 20
6498915.07
  0
LWPOLYLINE
  5
A3
330
A07
100
AcDbEntity
  8
Privateproperty
  6
Continuous
 62
    40
100
AcDbPolyline
 90
       12
 70
     0
 43
0.5
 10
615454.5600000024
 20
6498542.260000002
 10
615430.4600000024
 20
6498493.990000002
 10
615459.8200000024
 20
6498481.640000002
 10
615461.6400000023
 20
6498484.580000002
 10
615486.1800000024
 20
6498478.550000002
 10
615571.5800000024
 20
6498476.440000001
 10
615587.0900000024
 20
6498496.640000002
 10
615601.3700000024
 20
6498514.760000002
 10
615459.2600000023
 20
6498573.620000002
 10
615455.4200000024
 20
6498574.350000001
 10
615457.5900000024
 20
6498554.180000002
 10
615454.5600000024
 20
6498542.260000002
  0
LWPOLYLINE
  5
AB
330
A07
100
AcDbEntity
  8
Privateproperty
  6
Continuous
 62
    40
100
AcDbPolyline
 90
        4
 70
     0
 43
0.5
 10
614993.0743292925
 20
6498737.84663228
 10
615263.2699999985
 20
6498869.379999998
 10
615314.9999999985
 20
6498888.409999998
 10
615307.6999942408
 20
6498931.127941893
  0
LWPOLYLINE
  5
BF
330
A07
100
AcDbEntity
  8
Privateproperty
  6
Continuous
 62
    40
100
AcDbPolyline
 90
       10
 70
     0
 43
0.5
 10
615170.0200000033
 20
6498763.890000001
 10
615094.7000000033
 20
6498724.210000001
 10
615133.8000000033
 20
6498664.880000001
 10
615142.9000000033
 20
6498651.100000001
 10
615173.0000000033
 20
6498647.880000001
 10
615212.1100000032
 20
6498653.98
 10
615212.1000000032
 20
6498676.010000001
 10
615209.0500000033
 20
6498717.99
 10
615196.0000000033
 20
6498716.100000001
 10
615170.0200000033
 20
6498763.890000001
  0
LWPOLYLINE
  5
D3
330
A07
100
AcDbEntity
  8
Privateproperty
  6
Continuous
 62
    40
100
AcDbPolyline
 90
       10
 70
     0
 43
0.5
 10
615401.450000003
 20
6498669.5
 10
615333.110000003
 20
6498660.0
 10
615310.6500000029
 20
6498621.97
 10
615355.1400000029
 20
6498599.28
 10
615379.7800000029
 20
6498554.05
 10
615439.560000003
 20
6498541.93
 10
615443.980000003
 20
6498556.74
 10
615441.680000003
 20
6498570.64
 10
615433.730000003
 20
6498588.31
 10
615401.450000003
 20
6498669.5
  0
LWPOLYLINE
  5
F2
330
A07
100
AcDbEntity
  8
Privateproperty
  6
Continuous
 62
    40
100
AcDbPolyline
 90
        4
 70
     0
 43
0.5
 10
615377.3200000003
 20
6498907.739999998
 10
615315.0000000003
 20
6498888.409999998
 10
615263.2700000003
 20
6498869.379999998
 10
614993.0743292925
 20
6498737.846632279
  0
LWPOLYLINE
  5
F3
330
A07
100
AcDbEntity
  8
Privateproperty
  6
Continuous
 62
    40
100
AcDbPolyline
 90
       12
 70
     0
 43
0.5
 10
614993.0743292925
 20
6498687.214556834
 10
615011.7900000003
 20
6498663.899999999
 10
615027.2800000003
 20
6498644.749999998
 10
615142.9000000003
 20
6498651.099999999
 10
615133.8000000003
 20
6498664.879999998
 10
615094.7000000003
 20
6498724.209999998
 10
615170.0200000003
 20
6498763.889999999
 10
615166.8200000003
 20
6498772.729999999
 10
615223.2000000003
 20
6498808.249999998
 10
615274.2800000003
 20
6498836.709999998
 10
615388.2300000003
 20
6498874.749999998
 10
615377.3200000003
 20
6498907.739999998
  0
LWPOLYLINE
  5
FF
330
A07
100
AcDbEntity
  8
Privateproperty
  6
Continuous
 62
    40
100
AcDbPolyline
 90
        6
 70
     0
 43
0.5
 10
615571.2899999991
 20
6498597.010000002
 10
615567.9699999992
 20
6498591.020000001
 10
615568.1499999991
 20
6498581.880000002
 10
615603.4899999991
 20
6498568.400000001
 10
615609.5599999991
 20
6498581.980000001
 10
615571.2899999991
 20
6498597.010000002
  0
LWPOLYLINE
  5
123
330
A07
100
AcDbEntity
  8
Privateproperty
  6
Continuous
 62
    40
100
AcDbPolyline
 90
        8
 70
     0
 43
0.5
 10
615465.6000000015
 20
6498647.07
 10
615480.0500000014
 20
6498624.21
 10
615447.6800000014
 20
6498594.810000001
 10
615455.4200000014
 20
6498574.350000001
 10
615459.2600000015
 20
6498573.62
 10
615601.3700000015
 20
6498514.760000001
 10
615621.3600000015
 20
6498512.84
 10
615719.9552325223
 20
6498491.834105931
  0
LWPOLYLINE
  5
124
330
A07
100
AcDbEntity
  8
Privateproperty
  6
Continuous
 62
    40
100
AcDbPolyline
 90
        5
 70
     0
 43
0.5
 10
615719.9552325223
 20
6498579.338136861
 10
615623.9600000015
 20
6498607.07
 10
615642.4400000015
 20
6498657.9
 10
615504.9600000015
 20
6498700.29
 10
615465.6000000015
 20
6498647.07
  0
LWPOLYLINE
  5
125
330
A07
100
AcDbEntity
  8
Privateproperty
  6
Continuous
 62
    40
100
AcDbPolyline
 90
        6
 70
     0
 43
0.5
 10
615571.2900000014
 20
6498597.010000001
 10
615609.5600000015
 20
6498581.98
 10
615603.4900000015
 20
6498568.4
 10
615568.1500000015
 20
6498581.88
 10
615567.9700000015
 20
6498591.02
 10
615571.2900000014
 20
6498597.010000001
  0
LWPOLYLINE
  5
135
330
A07
100
AcDbEntity
  8
Privateproperty
  6
Continuous
 62
    40
100
AcDbPolyline
 90
        8
 70
     0
 43
0.5
 10
615223.200000003
 20
6498808.25
 10
615166.820000003
 20
6498772.73
 10
615170.0200000029
 20
6498763.89
 10
615196.000000003
 20
6498716.1
 10
615209.050000003
 20
6498717.99
 10
615247.050000003
 20
6498724.37
 10
615290.750000003
 20
6498735.16
 10
615223.200000003
 20
6498808.25
  0
LWPOLYLINE
  5
141
330
A07
100
AcDbEntity
  8
Privateproperty
  6
Continuous
 62
    40
100
AcDbPolyline
 90
        6
 70
     0
 43
0.5
 10
615411.6400000006
 20
6498783.34
 10
615379.6200000006
 20
6498802.32
 10
615353.6300000006
 20
6498755.6
 10
615383.5800000005
 20
6498724.85
 10
615392.6200000006
 20
6498722.5
 10
615411.6400000006
 20
6498783.34
  0
LWPOLYLINE
  5
149
330
A07
100
AcDbEntity
  8
Privateproperty
  6
Continuous
 62
    40
100
AcDbPolyline
 90
        4
 70
     0
 43
0.5
 10
615307.6999942418
 20
6498931.127941893
 10
615314.9999999994
 20
6498888.409999999
 10
615377.3199999994
 20
6498907.739999999
 10
615368.499494106
 20
6498931.127941893
  0
LWPOLYLINE
  5
153
330
A07
100
AcDbEntity
  8
Privateproperty
  6
Continuous
 62
    40
100
AcDbPolyline
 90
        5
 70
     0
 43
0.5
 10
615465.6000000015
 20
6498647.07
 10
615432.2100000015
 20
6498628.890000001
 10
615447.6800000014
 20
6498594.810000001
 10
615480.0500000014
 20
6498624.21
 10
615465.6000000015
 20
6498647.07
  0
LWPOLYLINE
  5
15E
330
A07
100
AcDbEntity
  8
Privateproperty
  6
Continuous
 62
    40
100
AcDbPolyline
 90
        2
 70
     0
 43
0.5
 10
615427.2199999988
 20
6498402.93
 10
615434.7934998479
 20
6498370.267503155
  0
LWPOLYLINE
  5
15F
330
A07
100
AcDbEntity
  8
Privateproperty
  6
Continuous
 62
    40
100
AcDbPolyline
 90
        4
 70
     0
 43
0.5
 10
615596.8116780546
 20
6498370.267503155
 10
615592.9099999988
 20
6498400.66
 10
615583.2699999989
 20
6498398.34
 10
615427.2199999988
 20
6498402.93
  0
LWPOLYLINE
  5
16E
330
A07
100
AcDbEntity
  8
Privateproperty
  6
Continuous
 62
    40
100
AcDbPolyline
 90
        4
 70
     0
 43
0.5
 10
615587.0900000036
 20
6498496.640000001
 10
615587.1600000035
 20
6498477.19
 10
615592.9100000035
 20
6498400.66
 10
615596.8116780597
 20
6498370.267503155
  0
LWPOLYLINE
  5
16F
330
A07
100
AcDbEntity
  8
Privateproperty
  6
Continuous
 62
    40
100
AcDbPolyline
 90
        4
 70
     0
 43
0.5
 10
615637.9523667105
 20
6498370.267503155
 10
615621.3600000036
 20
6498512.840000001
 10
615601.3700000036
 20
6498514.760000001
 10
615587.0900000036
 20
6498496.640000001
  0
LWPOLYLINE
  5
180
330
A07
100
AcDbEntity
  8
Privateproperty
  6
Continuous
 62
    40
100
AcDbPolyline
 90
        5
 70
     0
 43
0.5
 10
615541.3699999973
 20
6498797.649999999
 10
615504.9599999973
 20
6498700.289999998
 10
615642.4399999973
 20
6498657.899999999
 10
615678.8199999973
 20
6498758.819999998
 10
615719.9552325223
 20
6498746.19641595
  0
LWPOLYLINE
  5
181
330
A07
100
AcDbEntity
  8
Privateproperty
  6
Continuous
 62
    40
100
AcDbPolyline
 90
        4
 70
     0
 43
0.5
 10
615719.9552325223
 20
6498883.289426123
 10
615716.8299999973
 20
6498884.149999999
 10
615674.1499999973
 20
6498759.839999999
 10
615541.3699999973
 20
6498797.649999999
  0
LWPOLYLINE
  5
1A1
330
A07
100
AcDbEntity
  8
Privateproperty
  6
Continuous
 62
    40
100
AcDbPolyline
 90
       16
 70
     0
 43
0.5
 10
615420.1799999997
 20
6498467.039999999
 10
615419.3599999998
 20
6498459.02
 10
615420.8999999997
 20
6498433.389999999
 10
615427.2199999997
 20
6498402.929999999
 10
615583.2699999997
 20
6498398.339999999
 10
615592.9099999997
 20
6498400.659999999
 10
615587.1599999997
 20
6498477.189999999
 10
615587.0899999997
 20
6498496.639999999
 10
615571.5799999997
 20
6498476.439999999
 10
615549.4699999997
 20
6498451.829999999
 10
615481.9899999998
 20
6498453.589999999
 10
615467.9199999997
 20
6498454.679999999
 10
615468.0099999997
 20
6498456.609999999
 10
615450.2299999997
 20
6498457.659999999
 10
615450.9099999997
 20
6498461.699999999
 10
615420.1799999997
 20
6498467.039999999
  0
LWPOLYLINE
  5
1C7
330
A07
100
AcDbEntity
  8
Privateproperty
  6
Continuous
 62
    40
100
AcDbPolyline
 90
       19
 70
     0
 43
0.5
 10
615420.1706407263
 20
6498370.267503155
 10
615417.7600000023
 20
6498379.870000001
 10
615407.9800000024
 20
6498431.790000001
 10
615406.2600000023
 20
6498460.380000001
 10
615407.3400000024
 20
6498469.300000001
 10
615411.3800000023
 20
6498485.490000001
 10
615415.2200000024
 20
6498493.310000001
 10
615418.5200000023
 20
6498499.890000002
 10
615439.5600000024
 20
6498541.930000002
 10
615379.7800000024
 20
6498554.050000001
 10
615355.1400000023
 20
6498599.280000001
 10
615310.6500000024
 20
6498621.970000002
 10
615333.1100000024
 20
6498660.000000001
 10
615257.3800000023
 20
6498657.870000001
 10
615212.1100000024
 20
6498653.980000001
 10
615173.0000000023
 20
6498647.880000001
 10
615142.9000000024
 20
6498651.100000001
 10
615027.2800000024
 20
6498644.750000001
 10
614993.0743292925
 20
6498627.208245643
  0
LWPOLYLINE
  5
1CE
330
A07
100
AcDbEntity
  8
Privateproperty
  6
Continuous
 62
    40
100
AcDbPolyline
 90
        2
 70
     0
 43
0.5
 10
615621.3599999994
 20
6498512.84
 10
615637.9523667063
 20
6498370.267503155
  0
LWPOLYLINE
  5
1CF
330
A07
100
AcDbEntity
  8
Privateproperty
  6
Continuous
 62
    40
100
AcDbPolyline
 90
        2
 70
     0
 43
0.5
 10
615719.9552325223
 20
6498491.815202941
 10
615621.3599999994
 20
6498512.84
  0
LWPOLYLINE
  5
227
330
A07
100
AcDbEntity
  8
Stateownedproperty
  6
Continuous
 62
     7
100
AcDbPolyline
 90
       21
 70
     0
 43
0.5
 10
615434.793499848
 20
6498370.267503155
 10
615427.2199999985
 20
6498402.930000001
 10
615420.8999999985
 20
6498433.390000001
 10
615419.3599999985
 20
6498459.02
 10
615420.1799999985
 20
6498467.04
 10
615423.6899999985
 20
6498481.28
 10
615430.4599999986
 20
6498493.99
 10
615454.5599999985
 20
6498542.260000001
 10
615457.5899999985
 20
6498554.180000001
 10
615455.4199999985
 20
6498574.350000001
 10
615447.6799999985
 20
6498594.810000001
 10
615432.2099999986
 20
6498628.890000001
 10
615403.9299999985
 20
6498705.300000001
 10
615406.9699999985
 20
6498723.390000001
 10
615417.9899999985
 20
6498757.24
 10
615422.9999999985
 20
6498775.840000001
 10
615425.0299999985
 20
6498790.890000001
 10
615423.2999999985
 20
6498811.62
 10
615418.9399999985
 20
6498829.220000001
 10
615404.2999999985
 20
6498871.7
 10
615382.0188110317
 20
6498931.127941893
  0
LWPOLYLINE
  5
228
330
A07
100
AcDbEntity
  8
Stateownedproperty
  6
Continuous
 62
     7
100
AcDbPolyline
 90
       23
 70
     0
 43
0.5
 10
615368.4994941055
 20
6498931.127941893
 10
615377.3199999986
 20
6498907.74
 10
615388.2299999985
 20
6498874.75
 10
615405.4999999985
 20
6498829.78
 10
615411.5899999985
 20
6498804.78
 10
615412.0199999985
 20
6498796.83
 10
615411.6399999985
 20
6498783.340000001
 10
615392.6199999985
 20
6498722.5
 10
615390.4999999985
 20
6498710.78
 10
615391.3799999985
 20
6498696.15
 10
615401.4499999986
 20
6498669.5
 10
615433.7299999985
 20
6498588.310000001
 10
615441.6799999985
 20
6498570.640000001
 10
615443.9799999985
 20
6498556.74
 10
615439.5599999985
 20
6498541.930000001
 10
615418.5199999985
 20
6498499.890000001
 10
615415.2199999985
 20
6498493.310000001
 10
615411.3799999985
 20
6498485.49
 10
615407.3399999985
 20
6498469.300000001
 10
615406.2599999985
 20
6498460.380000001
 10
615407.9799999985
 20
6498431.79
 10
615417.7599999985
 20
6498379.87
 10
615420.1706407223
 20
6498370.267503155
  0
LWPOLYLINE
  5
23B
330
A07
100
AcDbEntity
  8
Municipalproperty
  6
Continuous
 62
    80
100
AcDbPolyline
 90
        9
 70
     0
 43
0.5
 10
615388.2299999967
 20
6498874.75
 10
615274.2799999968
 20
6498836.71
 10
615353.6299999967
 20
6498755.6
 10
615379.6199999967
 20
6498802.32
 10
615411.6399999968
 20
6498783.34
 10
615412.0199999968
 20
6498796.83
 10
615411.5899999967
 20
6498804.78
 10
615405.4999999967
 20
6498829.78
 10
615388.2299999967
 20
6498874.75
  0
LWPOLYLINE
  5
26A
330
A07
100
AcDbEntity
  8
Municipalproperty
  6
Continuous
 62
    80
100
AcDbPolyline
 90
       22
 70
     0
 43
0.5
 10
615382.0188110304
 20
6498931.127941893
 10
615404.2999999967
 20
6498871.700000001
 10
615418.9399999967
 20
6498829.220000002
 10
615423.2999999967
 20
6498811.620000001
 10
615425.0299999968
 20
6498790.890000002
 10
615422.9999999967
 20
6498775.840000002
 10
615417.9899999967
 20
6498757.240000001
 10
615406.9699999967
 20
6498723.390000002
 10
615403.9299999967
 20
6498705.300000002
 10
615432.2099999967
 20
6498628.890000002
 10
615465.5999999967
 20
6498647.070000001
 10
615504.9599999967
 20
6498700.290000002
 10
615541.3699999967
 20
6498797.650000001
 10
615544.0199999968
 20
6498905.360000001
 10
615541.7299999967
 20
6498909.530000001
 10
615565.2999999967
 20
6498914.760000002
 10
615576.8199999967
 20
6498915.070000001
 10
615610.7899999968
 20
6498909.660000001
 10
615632.6399999968
 20
6498901.910000001
 10
615632.1699999967
 20
6498899.620000001
 10
615716.8299999967
 20
6498884.150000001
 10
615719.9552325223
 20
6498883.289426126
  0
LWPOLYLINE
  5
26B
330
A07
100
AcDbEntity
  8
Municipalproperty
  6
Continuous
 62
    80
100
AcDbPolyline
 90
        2
 70
     0
 43
0.5
 10
615719.9552325223
 20
6498927.168940234
 10
615688.5199194382
 20
6498931.127941893
  0
LWPOLYLINE
  5
26F
330
A07
100
AcDbEntity
  8
Municipalproperty
  6
Continuous
 62
    80
100
AcDbPolyline
 90
        2
 70
     0
 43
0.5
 10
615688.5199194382
 20
6498931.127941893
 10
615719.9552325223
 20
6498927.168940234
  0
HATCH
  5
281
330
A07
100
AcDbEntity
  8
CustomerBuilding
 62
    33
100
AcDbHatch
 10
0.0
 20
0.0
 30
0.0
210
0.0
220
0.0
230
1.0
  2
SOLID
 70
     1
 71
     0
 91
        1
 92
        3
 72
     0
 73
     1
 93
        7
 10
615191.8949999971
 20
6498683.377
 10
615200.0609999971
 20
6498683.684
 10
615199.5389999971
 20
6498697.535
 10
615199.260999997
 20
6498704.909
 10
615186.405999997
 20
6498704.425
 10
615186.689999997
 20
6498696.903
 10
615191.378999997
 20
6498697.079
 97
        0
 75
     0
 76
     1
 98
        0
  0
LINE
  5
8ED
330
A07
100
AcDbEntity
  8
CustomerBuilding
  6
Continuous
 62
   252
100
AcDbLine
 10
615191.8949999971
 20
6498683.377
 30
53.35000000000582
 11
615200.0609999971
 21
6498683.684
 31
53.35000000000582
  0
LINE
  5
8EE
330
A07
100
AcDbEntity
  8
CustomerBuilding
  6
Continuous
 62
   252
100
AcDbLine
 10
615200.0609999971
 20
6498683.684
 30
53.35000000000582
 11
615199.5389999971
 21
6498697.535
 31
53.35000000000582
  0
LINE
  5
8EF
330
A07
100
AcDbEntity
  8
CustomerBuilding
  6
Continuous
 62
   252
100
AcDbLine
 10
615199.5389999971
 20
6498697.535
 30
53.35000000000582
 11
615199.260999997
 21
6498704.909
 31
51.22400000000582
  0
LINE
  5
8F0
330
A07
100
AcDbEntity
  8
CustomerBuilding
  6
Continuous
 62
   252
100
AcDbLine
 10
615199.260999997
 20
6498704.909
 30
51.22400000000582
 11
615186.405999997
 21
6498704.425
 31
51.22400000000582
  0
LINE
  5
8F1
330
A07
100
AcDbEntity
  8
CustomerBuilding
  6
Continuous
 62
   252
100
AcDbLine
 10
615186.405999997
 20
6498704.425
 30
51.22400000000582
 11
615186.689999997
 21
6498696.903
 31
51.22400000000582
  0
LINE
  5
8F2
330
A07
100
AcDbEntity
  8
CustomerBuilding
  6
Continuous
 62
   252
100
AcDbLine
 10
615186.689999997
 20
6498696.903
 30
51.22400000000582
 11
615191.378999997
 21
6498697.079
 31
53.35000000000582
  0
LINE
  5
8F3
330
A07
100
AcDbEntity
  8
CustomerBuilding
  6
Continuous
 62
   252
100
AcDbLine
 10
615191.378999997
 20
6498697.079
 30
53.35000000000582
 11
615191.8949999971
 21
6498683.377
 31
53.35000000000582
  0
HATCH
  5
295
330
A07
100
AcDbEntity
  8
CustomerBuilding
 62
    33
100
AcDbHatch
 10
0.0
 20
0.0
 30
0.0
210
0.0
220
0.0
230
1.0
  2
SOLID
 70
     1
 71
     0
 91
        1
 92
        3
 72
     0
 73
     1
 93
        8
 10
615460.5099999988
 20
6498497.958000001
 10
615464.9069999988
 20
6498505.665000002
 10
615456.9949999988
 20
6498510.187000002
 10
615456.4589999989
 20
6498509.251000002
 10
615454.3939999989
 20
6498510.434000002
 10
615452.6779999989
 20
6498507.439000002
 10
615454.7429999989
 20
6498506.256000002
 10
615452.5839999989
 20
6498502.488000002
 97
        0
 75
     0
 76
     1
 98
        0
  0
LWPOLYLINE
  5
296
330
A07
100
AcDbEntity
  8
CustomerBuilding
  6
Continuous
 62
   252
100
AcDbPolyline
 90
        8
 70
     1
 43
0.0
 38
51.46899999999732
 10
615460.5099999988
 20
6498497.958000001
 10
615464.9069999988
 20
6498505.665000002
 10
615456.9949999988
 20
6498510.187000002
 10
615456.4589999989
 20
6498509.251000002
 10
615454.3939999989
 20
6498510.434000002
 10
615452.6779999989
 20
6498507.439000002
 10
615454.7429999989
 20
6498506.256000002
 10
615452.5839999989
 20
6498502.488000002
  0
HATCH
  5
2A5
330
A07
100
AcDbEntity
  8
CustomerBuilding
 62
    33
100
AcDbHatch
 10
0.0
 20
0.0
 30
0.0
210
0.0
220
0.0
230
1.0
  2
SOLID
 70
     1
 71
     0
 91
        1
 92
        3
 72
     0
 73
     1
 93
        6
 10
615545.8309999966
 20
6498600.795999998
 10
615549.1069999966
 20
6498605.208999998
 10
615543.6259999966
 20
6498609.283999998
 10
615544.3329999966
 20
6498610.234999998
 10
615541.3769999966
 20
6498612.432999998
 10
615537.3909999966
 20
6498607.076999999
 97
        0
 75
     0
 76
     1
 98
        0
  0
LINE
  5
8F4
330
A07
100
AcDbEntity
  8
CustomerBuilding
  6
Continuous
 62
   252
100
AcDbLine
 10
615545.8309999966
 20
6498600.795999998
 30
51.97400000000198
 11
615549.1069999966
 21
6498605.208999998
 31
52.19200000000198
  0
LINE
  5
8F5
330
A07
100
AcDbEntity
  8
CustomerBuilding
  6
Continuous
 62
   252
100
AcDbLine
 10
615549.1069999966
 20
6498605.208999998
 30
52.19200000000198
 11
615543.6259999966
 21
6498609.283999998
 31
52.19200000000198
  0
LINE
  5
8F6
330
A07
100
AcDbEntity
  8
CustomerBuilding
  6
Continuous
 62
   252
100
AcDbLine
 10
615543.6259999966
 20
6498609.283999998
 30
52.19200000000198
 11
615544.3329999966
 21
6498610.234999998
 31
52.19200000000198
  0
LINE
  5
8F7
330
A07
100
AcDbEntity
  8
CustomerBuilding
  6
Continuous
 62
   252
100
AcDbLine
 10
615544.3329999966
 20
6498610.234999998
 30
52.19200000000198
 11
615541.3769999966
 21
6498612.432999998
 31
51.97400000000198
  0
LINE
  5
8F8
330
A07
100
AcDbEntity
  8
CustomerBuilding
  6
Continuous
 62
   252
100
AcDbLine
 10
615541.3769999966
 20
6498612.432999998
 30
51.97400000000198
 11
615537.3909999966
 21
6498607.076999999
 31
51.97400000000198
  0
LINE
  5
8F9
330
A07
100
AcDbEntity
  8
CustomerBuilding
  6
Continuous
 62
   252
100
AcDbLine
 10
615537.3909999966
 20
6498607.076999999
 30
51.97400000000198
 11
615545.8309999966
 21
6498600.795999998
 31
51.97400000000198
  0
HATCH
  5
2B1
330
A07
100
AcDbEntity
  8
CustomerBuilding
 62
    33
100
AcDbHatch
 10
0.0
 20
0.0
 30
0.0
210
0.0
220
0.0
230
1.0
  2
SOLID
 70
     1
 71
     0
 91
        1
 92
        3
 72
     0
 73
     1
 93
        4
 10
615516.0639999964
 20
6498597.946999999
 10
615522.4209999964
 20
6498606.594999999
 10
615511.4509999964
 20
6498614.647999999
 10
615505.0949999964
 20
6498605.988999999
 97
        0
 75
     0
 76
     1
 98
        0
  0
LWPOLYLINE
  5
2B2
330
A07
100
AcDbEntity
  8
CustomerBuilding
  6
Continuous
 62
   252
100
AcDbPolyline
 90
        4
 70
     1
 43
0.0
 38
-51.89599999999336
 10
-615516.0639999964
 20
6498597.946999999
 10
-615522.4209999964
 20
6498606.594999999
 10
-615511.4509999964
 20
6498614.647999999
 10
-615505.0949999964
 20
6498605.988999999
210
0.0
220
0.0
230
-1.0
  0
HATCH
  5
2BD
330
A07
100
AcDbEntity
  8
CustomerBuilding
 62
    33
100
AcDbHatch
 10
0.0
 20
0.0
 30
0.0
210
0.0
220
0.0
230
1.0
  2
SOLID
 70
     1
 71
     0
 91
        1
 92
        3
 72
     0
 73
     1
 93
        4
 10
615544.3260000013
 20
6498688.702999999
 10
615546.2690000013
 20
6498695.024999999
 10
615542.0740000013
 20
6498696.312999998
 10
615540.1250000013
 20
6498689.993999998
 97
        0
 75
     0
 76
     1
 98
        0
  0
LWPOLYLINE
  5
2BE
330
A07
100
AcDbEntity
  8
CustomerBuilding
  6
Continuous
 62
   252
100
AcDbPolyline
 90
        4
 70
     1
 43
0.0
 38
-49.53500000000349
 10
-615544.3260000013
 20
6498688.702999999
 10
-615546.2690000013
 20
6498695.024999999
 10
-615542.0740000013
 20
6498696.312999998
 10
-615540.1250000013
 20
6498689.993999998
210
0.0
220
0.0
230
-1.0
  0
HATCH
  5
2C9
330
A07
100
AcDbEntity
  8
CustomerBuilding
 62
    33
100
AcDbHatch
 10
0.0
 20
0.0
 30
0.0
210
0.0
220
0.0
230
1.0
  2
SOLID
 70
     1
 71
     0
 91
        1
 92
        3
 72
     0
 73
     1
 93
        4
 10
615457.8450000032
 20
6498431.108000002
 10
615462.8950000033
 20
6498431.396000002
 10
615462.6089999933
 20
6498436.440000001
 10
615457.5560000032
 20
6498436.159000002
 97
        0
 75
     0
 76
     1
 98
        0
  0
LWPOLYLINE
  5
2CA
330
A07
100
AcDbEntity
  8
CustomerBuilding
  6
Continuous
 62
   252
100
AcDbPolyline
 90
        4
 70
     1
 43
0.0
 38
48.83400000000256
 10
615457.8450000032
 20
6498431.108000002
 10
615462.8950000033
 20
6498431.396000002
 10
615462.6089999933
 20
6498436.440000001
 10
615457.5560000032
 20
6498436.159000002
  0
HATCH
  5
2D5
330
A07
100
AcDbEntity
  8
CustomerBuilding
 62
    33
100
AcDbHatch
 10
0.0
 20
0.0
 30
0.0
210
0.0
220
0.0
230
1.0
  2
SOLID
 70
     1
 71
     0
 91
        1
 92
        3
 72
     0
 73
     1
 93
        4
 10
615548.9990000008
 20
6498891.406999998
 10
615553.9930000007
 20
6498894.329999998
 10
615551.8230000007
 20
6498898.043999998
 10
615546.8370000008
 20
6498895.122999998
 97
        0
 75
     0
 76
     1
 98
        0
  0
LWPOLYLINE
  5
2D6
330
A07
100
AcDbEntity
  8
CustomerBuilding
  6
Continuous
 62
   252
100
AcDbPolyline
 90
        4
 70
     1
 43
0.0
 38
48.14699999999721
 10
615548.9990000008
 20
6498891.406999998
 10
615553.9930000007
 20
6498894.329999998
 10
615551.8230000007
 20
6498898.043999998
 10
615546.8370000008
 20
6498895.122999998
  0
HATCH
  5
2E9
330
A07
100
AcDbEntity
  8
CustomerBuilding
 62
    33
100
AcDbHatch
 10
0.0
 20
0.0
 30
0.0
210
0.0
220
0.0
230
1.0
  2
SOLID
 70
     1
 71
     0
 91
        1
 92
        3
 72
     0
 73
     1
 93
        8
 10
615356.0990000011
 20
6498722.724999999
 10
615358.7470000011
 20
6498723.558999998
 10
615358.2490000011
 20
6498725.137999998
 10
615360.3970000012
 20
6498725.814999999
 10
615358.7610000011
 20
6498731.051999998
 10
615351.7590000011
 20
6498728.858999998
 10
615353.4160000011
 20
6498723.614999998
 10
615355.6020000011
 20
6498724.303999999
 97
        0
 75
     0
 76
     1
 98
        0
  0
LWPOLYLINE
  5
2EA
330
A07
100
AcDbEntity
  8
CustomerBuilding
  6
Continuous
 62
   252
100
AcDbPolyline
 90
        8
 70
     1
 43
0.0
 38
-51.78500000000349
 10
-615356.0990000011
 20
6498722.724999999
 10
-615358.7470000011
 20
6498723.558999998
 10
-615358.2490000011
 20
6498725.137999998
 10
-615360.3970000012
 20
6498725.814999999
 10
-615358.7610000011
 20
6498731.051999998
 10
-615351.7590000011
 20
6498728.858999998
 10
-615353.4160000011
 20
6498723.614999998
 10
-615355.6020000011
 20
6498724.303999999
210
0.0
220
0.0
230
-1.0
  0
HATCH
  5
2F5
330
A07
100
AcDbEntity
  8
CustomerBuilding
 62
    33
100
AcDbHatch
 10
0.0
 20
0.0
 30
0.0
210
0.0
220
0.0
230
1.0
  2
SOLID
 70
     1
 71
     0
 91
        1
 92
        3
 72
     0
 73
     1
 93
        4
 10
615199.5390000028
 20
6498697.534999999
 10
615209.3690000027
 20
6498697.905999999
 10
615209.0920000027
 20
6498705.279999999
 10
615199.2610000027
 20
6498704.908999999
 97
        0
 75
     0
 76
     1
 98
        0
  0
LWPOLYLINE
  5
2F6
330
A07
100
AcDbEntity
  8
CustomerBuilding
  6
Continuous
 62
   252
100
AcDbPolyline
 90
        4
 70
     1
 43
0.0
 38
-51.22400000000198
 10
-615199.5390000028
 20
6498697.534999999
 10
-615209.3690000027
 20
6498697.905999999
 10
-615209.0920000027
 20
6498705.279999999
 10
-615199.2610000027
 20
6498704.908999999
210
0.0
220
0.0
230
-1.0
  0
HATCH
  5
301
330
A07
100
AcDbEntity
  8
CustomerBuilding
 62
    33
100
AcDbHatch
 10
0.0
 20
0.0
 30
0.0
210
0.0
220
0.0
230
1.0
  2
SOLID
 70
     1
 71
     0
 91
        1
 92
        3
 72
     0
 73
     1
 93
        4
 10
615083.7280000009
 20
6498716.189999999
 10
615087.0460000009
 20
6498721.458999999
 10
615081.5280000009
 20
6498724.933999999
 10
615078.2100000009
 20
6498719.664999999
 97
        0
 75
     0
 76
     1
 98
        0
  0
LWPOLYLINE
  5
302
330
A07
100
AcDbEntity
  8
CustomerBuilding
  6
Continuous
 62
   252
100
AcDbPolyline
 90
        4
 70
     1
 43
0.0
 38
-48.97999999999593
 10
-615083.7280000009
 20
6498716.189999999
 10
-615087.0460000009
 20
6498721.458999999
 10
-615081.5280000009
 20
6498724.933999999
 10
-615078.2100000009
 20
6498719.664999999
210
0.0
220
0.0
230
-1.0
  0
HATCH
  5
30D
330
A07
100
AcDbEntity
  8
CustomerBuilding
 62
    33
100
AcDbHatch
 10
0.0
 20
0.0
 30
0.0
210
0.0
220
0.0
230
1.0
  2
SOLID
 70
     1
 71
     0
 91
        1
 92
        3
 72
     0
 73
     1
 93
        4
 10
615300.9099999998
 20
6498544.139
 10
615304.0099999998
 20
6498549.406999999
 10
615298.7689999997
 20
6498552.489999999
 10
615295.6689999998
 20
6498547.221999999
 97
        0
 75
     0
 76
     1
 98
        0
  0
LWPOLYLINE
  5
30E
330
A07
100
AcDbEntity
  8
CustomerBuilding
  6
Continuous
 62
   252
100
AcDbPolyline
 90
        4
 70
     1
 43
0.0
 38
-48.83299999999872
 10
-615300.9099999998
 20
6498544.139
 10
-615304.0099999998
 20
6498549.406999999
 10
-615298.7689999997
 20
6498552.489999999
 10
-615295.6689999998
 20
6498547.221999999
210
0.0
220
0.0
230
-1.0
  0
HATCH
  5
319
330
A07
100
AcDbEntity
  8
CustomerBuilding
 62
    33
100
AcDbHatch
 10
0.0
 20
0.0
 30
0.0
210
0.0
220
0.0
230
1.0
  2
SOLID
 70
     1
 71
     0
 91
        1
 92
        3
 72
     0
 73
     1
 93
        4
 10
615334.5700000012
 20
6498523.430000001
 10
615336.8940000013
 20
6498527.401000001
 10
615328.2350000013
 20
6498532.469000001
 10
615325.9120000013
 20
6498528.498000001
 97
        0
 75
     0
 76
     1
 98
        0
  0
LINE
  5
8FA
330
A07
100
AcDbEntity
  8
CustomerBuilding
  6
Continuous
 62
   252
100
AcDbLine
 10
615334.5700000012
 20
6498523.430000001
 30
49.24299999999371
 11
615336.8940000013
 21
6498527.401000001
 31
49.36199999999371
  0
LINE
  5
8FB
330
A07
100
AcDbEntity
  8
CustomerBuilding
  6
Continuous
 62
   252
100
AcDbLine
 10
615336.8940000013
 20
6498527.401000001
 30
49.36199999999371
 11
615328.2350000013
 21
6498532.469000001
 31
49.44699999999371
  0
LINE
  5
8FC
330
A07
100
AcDbEntity
  8
CustomerBuilding
  6
Continuous
 62
   252
100
AcDbLine
 10
615328.2350000013
 20
6498532.469000001
 30
49.44699999999371
 11
615325.9120000013
 21
6498528.498000001
 31
49.26099999999371
  0
LINE
  5
8FD
330
A07
100
AcDbEntity
  8
CustomerBuilding
  6
Continuous
 62
   252
100
AcDbLine
 10
615325.9120000013
 20
6498528.498000001
 30
49.26099999999371
 11
615334.5700000012
 21
6498523.430000001
 31
49.24299999999371
  0
HATCH
  5
329
330
A07
100
AcDbEntity
  8
CustomerBuilding
 62
    33
100
AcDbHatch
 10
0.0
 20
0.0
 30
0.0
210
0.0
220
0.0
230
1.0
  2
SOLID
 70
     1
 71
     0
 91
        1
 92
        3
 72
     0
 73
     1
 93
        6
 10
615574.3080000025
 20
6498689.975
 10
615576.0270000026
 20
6498694.577
 10
615563.1620000026
 20
6498699.372
 10
615563.9200000026
 20
6498701.416999999
 10
615561.3680000026
 20
6498702.359999999
 10
615558.9010000025
 20
6498695.711999999
 97
        0
 75
     0
 76
     1
 98
        0
  0
LWPOLYLINE
  5
32A
330
A07
100
AcDbEntity
  8
CustomerBuilding
  6
Continuous
 62
   252
100
AcDbPolyline
 90
        6
 70
     1
 43
0.0
 38
-50.56100000000151
 10
-615574.3080000025
 20
6498689.975
 10
-615576.0270000026
 20
6498694.577
 10
-615563.1620000026
 20
6498699.372
 10
-615563.9200000026
 20
6498701.416999999
 10
-615561.3680000026
 20
6498702.359999999
 10
-615558.9010000025
 20
6498695.711999999
210
0.0
220
0.0
230
-1.0
  0
HATCH
  5
335
330
A07
100
AcDbEntity
  8
CustomerBuilding
 62
    33
100
AcDbHatch
 10
0.0
 20
0.0
 30
0.0
210
0.0
220
0.0
230
1.0
  2
SOLID
 70
     1
 71
     0
 91
        1
 92
        3
 72
     0
 73
     1
 93
        4
 10
615213.0289999993
 20
6498757.823
 10
615228.7679999992
 20
6498765.546
 10
615222.5439999992
 20
6498778.262
 10
615206.8059999992
 20
6498770.54
 97
        0
 75
     0
 76
     1
 98
        0
  0
LWPOLYLINE
  5
336
330
A07
100
AcDbEntity
  8
CustomerBuilding
  6
Continuous
 62
   252
100
AcDbPolyline
 90
        4
 70
     1
 43
0.0
 38
55.78800000000047
 10
615213.0289999993
 20
6498757.823
 10
615228.7679999992
 20
6498765.546
 10
615222.5439999992
 20
6498778.262
 10
615206.8059999992
 20
6498770.54
  0
HATCH
  5
341
330
A07
100
AcDbEntity
  8
CustomerBuilding
 62
    33
100
AcDbHatch
 10
0.0
 20
0.0
 30
0.0
210
0.0
220
0.0
230
1.0
  2
SOLID
 70
     1
 71
     0
 91
        1
 92
        3
 72
     0
 73
     1
 93
        4
 10
615462.6729999981
 20
6498618.618000002
 10
615472.9769999981
 20
6498625.078000002
 10
615462.4649999981
 20
6498641.880000002
 10
615452.1609999981
 20
6498635.416000002
 97
        0
 75
     0
 76
     1
 98
        0
  0
LWPOLYLINE
  5
342
330
A07
100
AcDbEntity
  8
CustomerBuilding
  6
Continuous
 62
   252
100
AcDbPolyline
 90
        4
 70
     1
 43
0.0
 38
-51.14900000000489
 10
-615462.6729999981
 20
6498618.618000002
 10
-615472.9769999981
 20
6498625.078000002
 10
-615462.4649999981
 20
6498641.880000002
 10
-615452.1609999981
 20
6498635.416000002
210
0.0
220
0.0
230
-1.0
  0
HATCH
  5
355
330
A07
100
AcDbEntity
  8
CustomerBuilding
 62
    33
100
AcDbHatch
 10
0.0
 20
0.0
 30
0.0
210
0.0
220
0.0
230
1.0
  2
SOLID
 70
     1
 71
     0
 91
        1
 92
        3
 72
     0
 73
     1
 93
        8
 10
615590.1920000024
 20
6498856.730000001
 10
615593.6960000023
 20
6498874.144000001
 10
615584.3620000023
 20
6498876.030000001
 10
615582.1600000024
 20
6498865.103000001
 10
615580.4810000024
 20
6498865.439000001
 10
615579.9530000023
 20
6498862.805000002
 10
615581.6300000023
 20
6498862.470000002
 10
615580.8540000024
 20
6498858.612000002
 97
        0
 75
     0
 76
     1
 98
        0
  0
LWPOLYLINE
  5
356
330
A07
100
AcDbEntity
  8
CustomerBuilding
  6
Continuous
 62
   252
100
AcDbPolyline
 90
        8
 70
     1
 43
0.0
 38
-50.98799999999756
 10
-615590.1920000024
 20
6498856.730000001
 10
-615593.6960000023
 20
6498874.144000001
 10
-615584.3620000023
 20
6498876.030000001
 10
-615582.1600000024
 20
6498865.103000001
 10
-615580.4810000024
 20
6498865.439000001
 10
-615579.9530000023
 20
6498862.805000002
 10
-615581.6300000023
 20
6498862.470000002
 10
-615580.8540000024
 20
6498858.612000002
210
0.0
220
0.0
230
-1.0
  0
HATCH
  5
361
330
A07
100
AcDbEntity
  8
CustomerBuilding
 62
    33
100
AcDbHatch
 10
0.0
 20
0.0
 30
0.0
210
0.0
220
0.0
230
1.0
  2
SOLID
 70
     1
 71
     0
 91
        1
 92
        3
 72
     0
 73
     1
 93
        4
 10
615525.1139999978
 20
6498716.566
 10
615528.8959999979
 20
6498717.147
 10
615527.9390000078
 20
6498723.436
 10
615524.1539999979
 20
6498722.868
 97
        0
 75
     0
 76
     1
 98
        0
  0
LWPOLYLINE
  5
362
330
A07
100
AcDbEntity
  8
CustomerBuilding
  6
Continuous
 62
   252
100
AcDbPolyline
 90
        4
 70
     1
 43
0.0
 38
-49.56399999999849
 10
-615525.1139999978
 20
6498716.566
 10
-615528.8959999979
 20
6498717.147
 10
-615527.9390000078
 20
6498723.436
 10
-615524.1539999979
 20
6498722.868
210
0.0
220
0.0
230
-1.0
  0
HATCH
  5
36D
330
A07
100
AcDbEntity
  8
CustomerBuilding
 62
    33
100
AcDbHatch
 10
0.0
 20
0.0
 30
0.0
210
0.0
220
0.0
230
1.0
  2
SOLID
 70
     1
 71
     0
 91
        1
 92
        3
 72
     0
 73
     1
 93
        4
 10
615553.4499999968
 20
6498721.290999999
 10
615555.2079999968
 20
6498734.838
 10
615546.9439999969
 20
6498735.909999999
 10
615545.1859999968
 20
6498722.363
 97
        0
 75
     0
 76
     1
 98
        0
  0
LINE
  5
8FE
330
A07
100
AcDbEntity
  8
CustomerBuilding
  6
Continuous
 62
   252
100
AcDbLine
 10
615553.4499999968
 20
6498721.290999999
 30
50.98799999999453
 11
615555.2079999968
 21
6498734.838
 31
50.99099999999453
  0
LINE
  5
8FF
330
A07
100
AcDbEntity
  8
CustomerBuilding
  6
Continuous
 62
   252
100
AcDbLine
 10
615555.2079999968
 20
6498734.838
 30
50.99099999999453
 11
615546.9439999969
 21
6498735.909999999
 31
50.99399999999453
  0
LINE
  5
900
330
A07
100
AcDbEntity
  8
CustomerBuilding
  6
Continuous
 62
   252
100
AcDbLine
 10
615546.9439999969
 20
6498735.909999999
 30
50.99399999999453
 11
615545.1859999968
 21
6498722.363
 31
50.99399999999453
  0
LINE
  5
901
330
A07
100
AcDbEntity
  8
CustomerBuilding
  6
Continuous
 62
   252
100
AcDbLine
 10
615545.1859999968
 20
6498722.363
 30
50.99399999999453
 11
615553.4499999968
 21
6498721.290999999
 31
50.98799999999453
  0
HATCH
  5
37D
330
A07
100
AcDbEntity
  8
CustomerBuilding
 62
    33
100
AcDbHatch
 10
0.0
 20
0.0
 30
0.0
210
0.0
220
0.0
230
1.0
  2
SOLID
 70
     1
 71
     0
 91
        1
 92
        3
 72
     0
 73
     1
 93
        6
 10
615232.8429999975
 20
6498702.684999999
 10
615239.9619999975
 20
6498704.434999999
 10
615237.2949999975
 20
6498715.231999999
 10
615233.9139999975
 20
6498714.406999999
 10
615234.2799999975
 20
6498712.897999999
 10
615230.5549999975
 20
6498711.971999998
 97
        0
 75
     0
 76
     1
 98
        0
  0
LWPOLYLINE
  5
37E
330
A07
100
AcDbEntity
  8
CustomerBuilding
  6
Continuous
 62
   252
100
AcDbPolyline
 90
        6
 70
     1
 43
0.0
 38
50.33400000000256
 10
615232.8429999975
 20
6498702.684999999
 10
615239.9619999975
 20
6498704.434999999
 10
615237.2949999975
 20
6498715.231999999
 10
615233.9139999975
 20
6498714.406999999
 10
615234.2799999975
 20
6498712.897999999
 10
615230.5549999975
 20
6498711.971999998
  0
HATCH
  5
389
330
A07
100
AcDbEntity
  8
CustomerBuilding
 62
    33
100
AcDbHatch
 10
0.0
 20
0.0
 30
0.0
210
0.0
220
0.0
230
1.0
  2
SOLID
 70
     1
 71
     0
 91
        1
 92
        3
 72
     0
 73
     1
 93
        4
 10
615537.9120000026
 20
6498549.013000001
 10
615559.5160000026
 20
6498579.644000001
 10
615550.6270000027
 20
6498585.916000001
 10
615529.0200000026
 20
6498555.291000001
 97
        0
 75
     0
 76
     1
 98
        0
  0
LWPOLYLINE
  5
38A
330
A07
100
AcDbEntity
  8
CustomerBuilding
  6
Continuous
 62
   252
100
AcDbPolyline
 90
        4
 70
     1
 43
0.0
 38
-54.66800000000512
 10
-615537.9120000026
 20
6498549.013000001
 10
-615559.5160000026
 20
6498579.644000001
 10
-615550.6270000027
 20
6498585.916000001
 10
-615529.0200000026
 20
6498555.291000001
210
0.0
220
0.0
230
-1.0
  0
HATCH
  5
395
330
A07
100
AcDbEntity
  8
CustomerBuilding
 62
    33
100
AcDbHatch
 10
0.0
 20
0.0
 30
0.0
210
0.0
220
0.0
230
1.0
  2
SOLID
 70
     1
 71
     0
 91
        1
 92
        3
 72
     0
 73
     1
 93
        4
 10
615475.142999999
 20
6498458.492000001
 10
615476.1689999991
 20
6498464.008000001
 10
615470.0639999991
 20
6498465.133000001
 10
615469.050999999
 20
6498459.622000001
 97
        0
 75
     0
 76
     1
 98
        0
  0
LWPOLYLINE
  5
396
330
A07
100
AcDbEntity
  8
CustomerBuilding
  6
Continuous
 62
   252
100
AcDbPolyline
 90
        4
 70
     1
 43
0.0
 38
-51.00599999999395
 10
-615475.142999999
 20
6498458.492000001
 10
-615476.1689999991
 20
6498464.008000001
 10
-615470.0639999991
 20
6498465.133000001
 10
-615469.050999999
 20
6498459.622000001
210
0.0
220
0.0
230
-1.0
  0
HATCH
  5
3A1
330
A07
100
AcDbEntity
  8
CustomerBuilding
 62
    33
100
AcDbHatch
 10
0.0
 20
0.0
 30
0.0
210
0.0
220
0.0
230
1.0
  2
SOLID
 70
     1
 71
     0
 91
        1
 92
        3
 72
     0
 73
     1
 93
        4
 10
615229.7529999993
 20
6498716.868
 10
615236.1319999993
 20
6498718.022
 10
615235.3349999993
 20
6498722.428
 10
615228.9569999992
 20
6498721.274
 97
        0
 75
     0
 76
     1
 98
        0
  0
LINE
  5
902
330
A07
100
AcDbEntity
  8
CustomerBuilding
  6
Continuous
 62
   252
100
AcDbLine
 10
615229.7529999993
 20
6498716.868
 30
50.62399999999884
 11
615236.1319999993
 21
6498718.022
 31
50.52999999999884
  0
LINE
  5
903
330
A07
100
AcDbEntity
  8
CustomerBuilding
  6
Continuous
 62
   252
100
AcDbLine
 10
615236.1319999993
 20
6498718.022
 30
50.52999999999884
 11
615235.3349999993
 21
6498722.428
 31
50.27899999999884
  0
LINE
  5
904
330
A07
100
AcDbEntity
  8
CustomerBuilding
  6
Continuous
 62
   252
100
AcDbLine
 10
615235.3349999993
 20
6498722.428
 30
50.27899999999884
 11
615228.9569999992
 21
6498721.274
 31
50.40699999999884
  0
LINE
  5
905
330
A07
100
AcDbEntity
  8
CustomerBuilding
  6
Continuous
 62
   252
100
AcDbLine
 10
615228.9569999992
 20
6498721.274
 30
50.40699999999884
 11
615229.7529999993
 21
6498716.868
 31
50.62399999999884
  0
HATCH
  5
3AD
330
A07
100
AcDbEntity
  8
CustomerBuilding
 62
    33
100
AcDbHatch
 10
0.0
 20
0.0
 30
0.0
210
0.0
220
0.0
230
1.0
  2
SOLID
 70
     1
 71
     0
 91
        1
 92
        3
 72
     0
 73
     1
 93
        4
 10
615211.3479999967
 20
6498711.135999999
 10
615215.5420000068
 20
6498711.745999999
 10
615214.6520000068
 20
6498717.838999999
 10
615210.4689999968
 20
6498717.232999999
 97
        0
 75
     0
 76
     1
 98
        0
  0
LWPOLYLINE
  5
3AE
330
A07
100
AcDbEntity
  8
CustomerBuilding
  6
Continuous
 62
   252
100
AcDbPolyline
 90
        4
 70
     1
 43
0.0
 38
49.65700000000652
 10
615211.3479999967
 20
6498711.135999999
 10
615215.5420000068
 20
6498711.745999999
 10
615214.6520000068
 20
6498717.838999999
 10
615210.4689999968
 20
6498717.232999999
  0
HATCH
  5
3BB
330
A07
100
AcDbEntity
  8
CustomerBuilding
 62
    33
100
AcDbHatch
 10
0.0
 20
0.0
 30
0.0
210
0.0
220
0.0
230
1.0
  2
SOLID
 70
     1
 71
     0
 91
        1
 92
        3
 72
     0
 73
     1
 93
        5
 10
615593.2459999986
 20
6498572.177999999
 10
615595.5029999986
 20
6498577.544
 10
615574.8359999986
 20
6498586.238
 10
615572.5849999987
 20
6498580.876
 10
615581.6429999986
 20
6498577.063
 97
        0
 75
     0
 76
     1
 98
        0
  0
LINE
  5
906
330
A07
100
AcDbEntity
  8
CustomerBuilding
  6
Continuous
 62
   252
100
AcDbLine
 10
615593.2459999986
 20
6498572.177999999
 30
53.77099999999336
 11
615595.5029999986
 21
6498577.544
 31
53.77099999999336
  0
LINE
  5
907
330
A07
100
AcDbEntity
  8
CustomerBuilding
  6
Continuous
 62
   252
100
AcDbLine
 10
615595.5029999986
 20
6498577.544
 30
53.77099999999336
 11
615574.8359999986
 21
6498586.238
 31
53.77099999999336
  0
LINE
  5
908
330
A07
100
AcDbEntity
  8
CustomerBuilding
  6
Continuous
 62
   252
100
AcDbLine
 10
615574.8359999986
 20
6498586.238
 30
53.77099999999336
 11
615572.5849999987
 21
6498580.876
 31
53.07099999999336
  0
LINE
  5
909
330
A07
100
AcDbEntity
  8
CustomerBuilding
  6
Continuous
 62
   252
100
AcDbLine
 10
615572.5849999987
 20
6498580.876
 30
53.07099999999336
 11
615581.6429999986
 21
6498577.063
 31
53.37799999999336
  0
LINE
  5
90A
330
A07
100
AcDbEntity
  8
CustomerBuilding
  6
Continuous
 62
   252
100
AcDbLine
 10
615581.6429999986
 20
6498577.063
 30
53.37799999999336
 11
615593.2459999986
 21
6498572.177999999
 31
53.77099999999336
  0
HATCH
  5
3CB
330
A07
100
AcDbEntity
  8
CustomerBuilding
 62
    33
100
AcDbHatch
 10
0.0
 20
0.0
 30
0.0
210
0.0
220
0.0
230
1.0
  2
SOLID
 70
     1
 71
     0
 91
        1
 92
        3
 72
     0
 73
     1
 93
        6
 10
615490.386
 20
6498504.104
 10
615491.4140000001
 20
6498507.745
 10
615493.753
 20
6498507.085
 10
615495.1140000001
 20
6498511.91
 10
615485.8910000001
 20
6498514.512
 10
615483.503
 20
6498506.046
 97
        0
 75
     0
 76
     1
 98
        0
  0
LINE
  5
90B
330
A07
100
AcDbEntity
  8
CustomerBuilding
  6
Continuous
 62
   252
100
AcDbLine
 10
615490.386
 20
6498504.104
 30
51.19900000000209
 11
615491.4140000001
 21
6498507.745
 31
51.35500000000209
  0
LINE
  5
90C
330
A07
100
AcDbEntity
  8
CustomerBuilding
  6
Continuous
 62
   252
100
AcDbLine
 10
615491.4140000001
 20
6498507.745
 30
51.35500000000209
 11
615493.753
 21
6498507.085
 31
51.26900000000209
  0
LINE
  5
90D
330
A07
100
AcDbEntity
  8
CustomerBuilding
  6
Continuous
 62
   252
100
AcDbLine
 10
615493.753
 20
6498507.085
 30
51.26900000000209
 11
615495.1140000001
 21
6498511.91
 31
51.0460000000021
  0
LINE
  5
90E
330
A07
100
AcDbEntity
  8
CustomerBuilding
  6
Continuous
 62
   252
100
AcDbLine
 10
615495.1140000001
 20
6498511.91
 30
51.0460000000021
 11
615485.8910000001
 21
6498514.512
 31
51.12900000000209
  0
LINE
  5
90F
330
A07
100
AcDbEntity
  8
CustomerBuilding
  6
Continuous
 62
   252
100
AcDbLine
 10
615485.8910000001
 20
6498514.512
 30
51.12900000000209
 11
615483.503
 21
6498506.046
 31
50.9180000000021
  0
LINE
  5
910
330
A07
100
AcDbEntity
  8
CustomerBuilding
  6
Continuous
 62
   252
100
AcDbLine
 10
615483.503
 20
6498506.046
 30
50.9180000000021
 11
615490.386
 21
6498504.104
 31
51.19900000000209
  0
HATCH
  5
3DF
330
A07
100
AcDbEntity
  8
CustomerBuilding
 62
    33
100
AcDbHatch
 10
0.0
 20
0.0
 30
0.0
210
0.0
220
0.0
230
1.0
  2
SOLID
 70
     1
 71
     0
 91
        1
 92
        3
 72
     0
 73
     1
 93
        8
 10
615390.8420000002
 20
6498738.346999999
 10
615402.6940000001
 20
6498780.196999999
 10
615389.9780000002
 20
6498783.787999999
 10
615380.4080000002
 20
6498750.014999999
 10
615375.6420000002
 20
6498751.359999999
 10
615374.1950000002
 20
6498746.255999999
 10
615378.9610000001
 20
6498744.909999999
 10
615378.1210000002
 20
6498741.946999999
 97
        0
 75
     0
 76
     1
 98
        0
  0
LWPOLYLINE
  5
3E0
330
A07
100
AcDbEntity
  8
CustomerBuilding
  6
Continuous
 62
   252
100
AcDbPolyline
 90
        8
 70
     1
 43
0.0
 38
-52.67200000000594
 10
-615390.8420000002
 20
6498738.346999999
 10
-615402.6940000001
 20
6498780.196999999
 10
-615389.9780000002
 20
6498783.787999999
 10
-615380.4080000002
 20
6498750.014999999
 10
-615375.6420000002
 20
6498751.359999999
 10
-615374.1950000002
 20
6498746.255999999
 10
-615378.9610000001
 20
6498744.909999999
 10
-615378.1210000002
 20
6498741.946999999
210
0.0
220
0.0
230
-1.0
  0
HATCH
  5
3EB
330
A07
100
AcDbEntity
  8
CustomerBuilding
 62
    33
100
AcDbHatch
 10
0.0
 20
0.0
 30
0.0
210
0.0
220
0.0
230
1.0
  2
SOLID
 70
     1
 71
     0
 91
        1
 92
        3
 72
     0
 73
     1
 93
        4
 10
615364.0519999977
 20
6498754.157999999
 10
615367.2929999977
 20
6498761.370999999
 10
615362.2779999977
 20
6498763.619999999
 10
615359.0319999977
 20
6498756.413999999
 97
        0
 75
     0
 76
     1
 98
        0
  0
LWPOLYLINE
  5
3EC
330
A07
100
AcDbEntity
  8
CustomerBuilding
  6
Continuous
 62
   252
100
AcDbPolyline
 90
        4
 70
     1
 43
0.0
 38
-52.84399999999732
 10
-615364.0519999977
 20
6498754.157999999
 10
-615367.2929999977
 20
6498761.370999999
 10
-615362.2779999977
 20
6498763.619999999
 10
-615359.0319999977
 20
6498756.413999999
210
0.0
220
0.0
230
-1.0
  0
HATCH
  5
3F7
330
A07
100
AcDbEntity
  8
CustomerBuilding
 62
    33
100
AcDbHatch
 10
0.0
 20
0.0
 30
0.0
210
0.0
220
0.0
230
1.0
  2
SOLID
 70
     1
 71
     0
 91
        1
 92
        3
 72
     0
 73
     1
 93
        4
 10
615550.4470000013
 20
6498702.399
 10
615551.4970000014
 20
6498709.044
 10
615548.2720000014
 20
6498709.546999999
 10
615547.2280000014
 20
6498702.899999999
 97
        0
 75
     0
 76
     1
 98
        0
  0
LWPOLYLINE
  5
3F8
330
A07
100
AcDbEntity
  8
CustomerBuilding
  6
Continuous
 62
   252
100
AcDbPolyline
 90
        4
 70
     1
 43
0.0
 38
50.04399999999441
 10
615550.4470000013
 20
6498702.399
 10
615551.4970000014
 20
6498709.044
 10
615548.2720000014
 20
6498709.546999999
 10
615547.2280000014
 20
6498702.899999999
  0
HATCH
  5
403
330
A07
100
AcDbEntity
  8
CustomerBuilding
 62
    33
100
AcDbHatch
 10
0.0
 20
0.0
 30
0.0
210
0.0
220
0.0
230
1.0
  2
SOLID
 70
     1
 71
     0
 91
        1
 92
        3
 72
     0
 73
     1
 93
        4
 10
615467.7289999968
 20
6498430.036000002
 10
615477.2189999968
 20
6498430.227000002
 10
615476.7429999968
 20
6498454.330000002
 10
615467.2589999968
 20
6498454.142000002
 97
        0
 75
     0
 76
     1
 98
        0
  0
LINE
  5
911
330
A07
100
AcDbEntity
  8
CustomerBuilding
  6
Continuous
 62
   252
100
AcDbLine
 10
615467.7289999968
 20
6498430.036000002
 30
50.54899999999907
 11
615477.2189999968
 21
6498430.227000002
 31
50.54899999999907
  0
LINE
  5
912
330
A07
100
AcDbEntity
  8
CustomerBuilding
  6
Continuous
 62
   252
100
AcDbLine
 10
615477.2189999968
 20
6498430.227000002
 30
50.54899999999907
 11
615476.7429999968
 21
6498454.330000002
 31
50.53699999999907
  0
LINE
  5
913
330
A07
100
AcDbEntity
  8
CustomerBuilding
  6
Continuous
 62
   252
100
AcDbLine
 10
615476.7429999968
 20
6498454.330000002
 30
50.53699999999907
 11
615467.2589999968
 21
6498454.142000002
 31
50.54899999999907
  0
LINE
  5
914
330
A07
100
AcDbEntity
  8
CustomerBuilding
  6
Continuous
 62
   252
100
AcDbLine
 10
615467.2589999968
 20
6498454.142000002
 30
50.54899999999907
 11
615467.7289999968
 21
6498430.036000002
 31
50.54899999999907
  0
HATCH
  5
413
330
A07
100
AcDbEntity
  8
CustomerBuilding
 62
    33
100
AcDbHatch
 10
0.0
 20
0.0
 30
0.0
210
0.0
220
0.0
230
1.0
  2
SOLID
 70
     1
 71
     0
 91
        1
 92
        3
 72
     0
 73
     1
 93
        6
 10
615044.4299999994
 20
6498729.352000001
 10
615052.3599999994
 20
6498733.232000001
 10
615049.2859999994
 20
6498739.513000001
 10
615046.5799999994
 20
6498745.041000001
 10
615038.6399999994
 20
6498741.172000001
 10
615041.2479999994
 20
6498735.847000001
 97
        0
 75
     0
 76
     1
 98
        0
  0
LWPOLYLINE
  5
414
330
A07
100
AcDbEntity
  8
CustomerBuilding
  6
Continuous
 62
   252
100
AcDbPolyline
 90
        6
 70
     1
 43
0.0
 38
-55.38099999999395
 10
-615044.4299999994
 20
6498729.352000001
 10
-615052.3599999994
 20
6498733.232000001
 10
-615049.2859999994
 20
6498739.513000001
 10
-615046.5799999994
 20
6498745.041000001
 10
-615038.6399999994
 20
6498741.172000001
 10
-615041.2479999994
 20
6498735.847000001
210
0.0
220
0.0
230
-1.0
  0
HATCH
  5
41F
330
A07
100
AcDbEntity
  8
CustomerBuilding
 62
    33
100
AcDbHatch
 10
0.0
 20
0.0
 30
0.0
210
0.0
220
0.0
230
1.0
  2
SOLID
 70
     1
 71
     0
 91
        1
 92
        3
 72
     0
 73
     1
 93
        4
 10
615604.0029999997
 20
6498577.355
 10
615606.1799999997
 20
6498583.085000001
 10
615572.9719999997
 20
6498595.722000001
 10
615570.7909999997
 20
6498590.005000001
 97
        0
 75
     0
 76
     1
 98
        0
  0
LINE
  5
915
330
A07
100
AcDbEntity
  8
CustomerBuilding
  6
Continuous
 62
   252
100
AcDbLine
 10
615604.0029999997
 20
6498577.355
 30
53.76600000000477
 11
615606.1799999997
 21
6498583.085000001
 31
53.07700000000477
  0
LINE
  5
916
330
A07
100
AcDbEntity
  8
CustomerBuilding
  6
Continuous
 62
   252
100
AcDbLine
 10
615606.1799999997
 20
6498583.085000001
 30
53.07700000000477
 11
615572.9719999997
 21
6498595.722000001
 31
53.07700000000477
  0
LINE
  5
917
330
A07
100
AcDbEntity
  8
CustomerBuilding
  6
Continuous
 62
   252
100
AcDbLine
 10
615572.9719999997
 20
6498595.722000001
 30
53.07700000000477
 11
615570.7909999997
 21
6498590.005000001
 31
53.77700000000478
  0
LINE
  5
918
330
A07
100
AcDbEntity
  8
CustomerBuilding
  6
Continuous
 62
   252
100
AcDbLine
 10
615570.7909999997
 20
6498590.005000001
 30
53.77700000000478
 11
615604.0029999997
 21
6498577.355
 31
53.76600000000477
  0
HATCH
  5
42B
330
A07
100
AcDbEntity
  8
CustomerBuilding
 62
    33
100
AcDbHatch
 10
0.0
 20
0.0
 30
0.0
210
0.0
220
0.0
230
1.0
  2
SOLID
 70
     1
 71
     0
 91
        1
 92
        3
 72
     0
 73
     1
 93
        4
 10
615506.2009999935
 20
6498484.193999999
 10
615509.8510000035
 20
6498490.401999999
 10
615504.1560000036
 20
6498493.738999999
 10
615500.5110000035
 20
6498487.535999998
 97
        0
 75
     0
 76
     1
 98
        0
  0
LWPOLYLINE
  5
42C
330
A07
100
AcDbEntity
  8
CustomerBuilding
  6
Continuous
 62
   252
100
AcDbPolyline
 90
        4
 70
     1
 43
0.0
 38
51.2670000000071
 10
615506.2009999935
 20
6498484.193999999
 10
615509.8510000035
 20
6498490.401999999
 10
615504.1560000036
 20
6498493.738999999
 10
615500.5110000035
 20
6498487.535999998
  0
HATCH
  5
437
330
A07
100
AcDbEntity
  8
CustomerBuilding
 62
    33
100
AcDbHatch
 10
0.0
 20
0.0
 30
0.0
210
0.0
220
0.0
230
1.0
  2
SOLID
 70
     1
 71
     0
 91
        1
 92
        3
 72
     0
 73
     1
 93
        4
 10
615556.6899999972
 20
6498599.567000002
 10
615560.2779999971
 20
6498604.532000002
 10
615554.3419999972
 20
6498608.821000001
 10
615550.7539999972
 20
6498603.856000002
 97
        0
 75
     0
 76
     1
 98
        0
  0
LWPOLYLINE
  5
438
330
A07
100
AcDbEntity
  8
CustomerBuilding
  6
Continuous
 62
   252
100
AcDbPolyline
 90
        4
 70
     1
 43
0.0
 38
-40853.26500836833
 10
615550.0541542539
 20
6498471.783055703
 10
615553.6423316924
 20
6498476.748140562
 10
615547.7063839018
 20
6498481.037213868
 10
615544.1182064633
 20
6498476.072129009
210
-0.004729769430150333
220
-0.005846583392197445
230
0.9999717229720927
  0
HATCH
  5
443
330
A07
100
AcDbEntity
  8
CustomerBuilding
 62
    33
100
AcDbHatch
 10
0.0
 20
0.0
 30
0.0
210
0.0
220
0.0
230
1.0
  2
SOLID
 70
     1
 71
     0
 91
        1
 92
        3
 72
     0
 73
     1
 93
        4
 10
615439.746000002
 20
6498436.628
 10
615449.751000002
 20
6498438.208000001
 10
615446.6760000021
 20
6498457.583000001
 10
615436.684000002
 20
6498456.005000001
 97
        0
 75
     0
 76
     1
 98
        0
  0
LWPOLYLINE
  5
444
330
A07
100
AcDbEntity
  8
CustomerBuilding
  6
Continuous
 62
   252
100
AcDbPolyline
 90
        4
 70
     1
 43
0.0
 38
51.20799999999872
 10
615439.746000002
 20
6498436.628
 10
615449.751000002
 20
6498438.208000001
 10
615446.6760000021
 20
6498457.583000001
 10
615436.684000002
 20
6498456.005000001
  0
HATCH
  5
44F
330
A07
100
AcDbEntity
  8
CustomerBuilding
 62
    33
100
AcDbHatch
 10
0.0
 20
0.0
 30
0.0
210
0.0
220
0.0
230
1.0
  2
SOLID
 70
     1
 71
     0
 91
        1
 92
        3
 72
     0
 73
     1
 93
        4
 10
615445.2629999979
 20
6498476.032999999
 10
615448.3849999979
 20
6498483.381999999
 10
615436.5809999979
 20
6498488.376999999
 10
615433.4629999979
 20
6498481.028999999
 97
        0
 75
     0
 76
     1
 98
        0
  0
LWPOLYLINE
  5
450
330
A07
100
AcDbEntity
  8
CustomerBuilding
  6
Continuous
 62
   252
100
AcDbPolyline
 90
        4
 70
     1
 43
0.0
 38
50.54899999999907
 10
615445.2629999979
 20
6498476.032999999
 10
615448.3849999979
 20
6498483.381999999
 10
615436.5809999979
 20
6498488.376999999
 10
615433.4629999979
 20
6498481.028999999
  0
HATCH
  5
45B
330
A07
100
AcDbEntity
  8
CustomerBuilding
 62
    33
100
AcDbHatch
 10
0.0
 20
0.0
 30
0.0
210
0.0
220
0.0
230
1.0
  2
SOLID
 70
     1
 71
     0
 91
        1
 92
        3
 72
     0
 73
     1
 93
        4
 10
615193.8599999994
 20
6498779.921
 10
615222.2499999994
 20
6498793.742000001
 10
615219.8499999994
 20
6498798.661
 10
615191.4699999994
 20
6498784.8
 97
        0
 75
     0
 76
     1
 98
        0
  0
LWPOLYLINE
  5
45C
330
A07
100
AcDbEntity
  8
CustomerBuilding
  6
Continuous
 62
   252
100
AcDbPolyline
 90
        4
 70
     1
 43
0.0
 38
-51.12099999999919
 10
-615193.8599999994
 20
6498779.921
 10
-615222.2499999994
 20
6498793.742000001
 10
-615219.8499999994
 20
6498798.661
 10
-615191.4699999994
 20
6498784.8
210
0.0
220
0.0
230
-1.0
  0
HATCH
  5
467
330
A07
100
AcDbEntity
  8
CustomerBuilding
 62
    33
100
AcDbHatch
 10
0.0
 20
0.0
 30
0.0
210
0.0
220
0.0
230
1.0
  2
SOLID
 70
     1
 71
     0
 91
        1
 92
        3
 72
     0
 73
     1
 93
        4
 10
615245.6199999973
 20
6498736.331
 10
615256.7099999973
 20
6498741.361
 10
615252.3399999973
 20
6498750.992000001
 10
615241.2399999973
 20
6498745.952000001
 97
        0
 75
     0
 76
     1
 98
        0
  0
LWPOLYLINE
  5
468
330
A07
100
AcDbEntity
  8
CustomerBuilding
  6
Continuous
 62
   252
100
AcDbPolyline
 90
        4
 70
     1
 43
0.0
 38
-52.33000000000175
 10
-615245.6199999973
 20
6498736.331
 10
-615256.7099999973
 20
6498741.361
 10
-615252.3399999973
 20
6498750.992000001
 10
-615241.2399999973
 20
6498745.952000001
210
0.0
220
0.0
230
-1.0
  0
HATCH
  5
477
330
A07
100
AcDbEntity
  8
CustomerBuilding
 62
    33
100
AcDbHatch
 10
0.0
 20
0.0
 30
0.0
210
0.0
220
0.0
230
1.0
  2
SOLID
 70
     1
 71
     0
 91
        1
 92
        3
 72
     0
 73
     1
 93
        6
 10
615481.732999997
 20
6498471.337000001
 10
615483.275999997
 20
6498475.142000001
 10
615466.174999997
 20
6498482.039000001
 10
615464.013999997
 20
6498476.677000001
 10
615467.159999997
 20
6498475.403000001
 10
615467.793999997
 20
6498476.966000001
 97
        0
 75
     0
 76
     1
 98
        0
  0
LINE
  5
919
330
A07
100
AcDbEntity
  8
CustomerBuilding
  6
Continuous
 62
   252
100
AcDbLine
 10
615481.732999997
 20
6498471.337000001
 30
51.1249999999979
 11
615483.275999997
 21
6498475.142000001
 31
50.5789999999979
  0
LINE
  5
91A
330
A07
100
AcDbEntity
  8
CustomerBuilding
  6
Continuous
 62
   252
100
AcDbLine
 10
615483.275999997
 20
6498475.142000001
 30
50.5789999999979
 11
615466.174999997
 21
6498482.039000001
 31
50.5789999999979
  0
LINE
  5
91B
330
A07
100
AcDbEntity
  8
CustomerBuilding
  6
Continuous
 62
   252
100
AcDbLine
 10
615466.174999997
 20
6498482.039000001
 30
50.5789999999979
 11
615464.013999997
 21
6498476.677000001
 31
51.1249999999979
  0
LINE
  5
91C
330
A07
100
AcDbEntity
  8
CustomerBuilding
  6
Continuous
 62
   252
100
AcDbLine
 10
615464.013999997
 20
6498476.677000001
 30
51.1249999999979
 11
615467.159999997
 21
6498475.403000001
 31
51.1249999999979
  0
LINE
  5
91D
330
A07
100
AcDbEntity
  8
CustomerBuilding
  6
Continuous
 62
   252
100
AcDbLine
 10
615467.159999997
 20
6498475.403000001
 30
51.1249999999979
 11
615467.793999997
 21
6498476.966000001
 31
51.1249999999979
  0
LINE
  5
91E
330
A07
100
AcDbEntity
  8
CustomerBuilding
  6
Continuous
 62
   252
100
AcDbLine
 10
615467.793999997
 20
6498476.966000001
 30
51.1249999999979
 11
615481.732999997
 21
6498471.337000001
 31
51.1249999999979
  0
HATCH
  5
483
330
A07
100
AcDbEntity
  8
CustomerBuilding
 62
    33
100
AcDbHatch
 10
0.0
 20
0.0
 30
0.0
210
0.0
220
0.0
230
1.0
  2
SOLID
 70
     1
 71
     0
 91
        1
 92
        3
 72
     0
 73
     1
 93
        4
 10
615271.813
 20
6498723.677
 10
615279.8559999999
 20
6498724.859999999
 10
615279.171
 20
6498729.484
 10
615271.1359999999
 20
6498728.294
 97
        0
 75
     0
 76
     1
 98
        0
  0
LINE
  5
91F
330
A07
100
AcDbEntity
  8
CustomerBuilding
  6
Continuous
 62
   252
100
AcDbLine
 10
615271.813
 20
6498723.677
 30
50.9869999999929
 11
615279.8559999999
 21
6498724.859999999
 31
50.3089999999929
  0
LINE
  5
920
330
A07
100
AcDbEntity
  8
CustomerBuilding
  6
Continuous
 62
   252
100
AcDbLine
 10
615279.8559999999
 20
6498724.859999999
 30
50.3089999999929
 11
615279.171
 21
6498729.484
 31
50.3089999999929
  0
LINE
  5
921
330
A07
100
AcDbEntity
  8
CustomerBuilding
  6
Continuous
 62
   252
100
AcDbLine
 10
615279.171
 20
6498729.484
 30
50.3089999999929
 11
615271.1359999999
 21
6498728.294
 31
50.1079999999929
  0
LINE
  5
922
330
A07
100
AcDbEntity
  8
CustomerBuilding
  6
Continuous
 62
   252
100
AcDbLine
 10
615271.1359999999
 20
6498728.294
 30
50.1079999999929
 11
615271.813
 21
6498723.677
 31
50.9869999999929
  0
HATCH
  5
493
330
A07
100
AcDbEntity
  8
CustomerBuilding
 62
    33
100
AcDbHatch
 10
0.0
 20
0.0
 30
0.0
210
0.0
220
0.0
230
1.0
  2
SOLID
 70
     1
 71
     0
 91
        1
 92
        3
 72
     0
 73
     1
 93
        6
 10
615270.0769999968
 20
6498683.104999999
 10
615282.7779999968
 20
6498686.014999999
 10
615281.1039999968
 20
6498693.293999999
 10
615278.3119999968
 20
6498692.662999999
 10
615276.0939999968
 20
6498702.322999999
 10
615266.1949999968
 20
6498700.042999999
 97
        0
 75
     0
 76
     1
 98
        0
  0
LWPOLYLINE
  5
494
330
A07
100
AcDbEntity
  8
CustomerBuilding
  6
Continuous
 62
   252
100
AcDbPolyline
 90
        6
 70
     1
 43
0.0
 38
51.63300000000163
 10
615270.0769999968
 20
6498683.104999999
 10
615282.7779999968
 20
6498686.014999999
 10
615281.1039999968
 20
6498693.293999999
 10
615278.3119999968
 20
6498692.662999999
 10
615276.0939999968
 20
6498702.322999999
 10
615266.1949999968
 20
6498700.042999999
  0
HATCH
  5
49F
330
A07
100
AcDbEntity
  8
CustomerBuilding
 62
    33
100
AcDbHatch
 10
0.0
 20
0.0
 30
0.0
210
0.0
220
0.0
230
1.0
  2
SOLID
 70
     1
 71
     0
 91
        1
 92
        3
 72
     0
 73
     1
 93
        4
 10
615365.9799999967
 20
6498704.541000001
 10
615387.5599999967
 20
6498710.211000001
 10
615385.3499999967
 20
6498718.621000001
 10
615363.7999999967
 20
6498712.932000001
 97
        0
 75
     0
 76
     1
 98
        0
  0
LWPOLYLINE
  5
4A0
330
A07
100
AcDbEntity
  8
CustomerBuilding
  6
Continuous
 62
   252
100
AcDbPolyline
 90
        4
 70
     1
 43
0.0
 38
-52.39299999999639
 10
-615365.9799999967
 20
6498704.541000001
 10
-615387.5599999967
 20
6498710.211000001
 10
-615385.3499999967
 20
6498718.621000001
 10
-615363.7999999967
 20
6498712.932000001
210
0.0
220
0.0
230
-1.0
  0
HATCH
  5
4AB
330
A07
100
AcDbEntity
  8
CustomerBuilding
 62
    33
100
AcDbHatch
 10
0.0
 20
0.0
 30
0.0
210
0.0
220
0.0
230
1.0
  2
SOLID
 70
     1
 71
     0
 91
        1
 92
        3
 72
     0
 73
     1
 93
        4
 10
615254.2920000028
 20
6498722.069000001
 10
615261.3470000029
 20
6498723.462000001
 10
615260.5719999928
 20
6498727.387000001
 10
615253.5160000029
 20
6498725.993000002
 97
        0
 75
     0
 76
     1
 98
        0
  0
LINE
  5
923
330
A07
100
AcDbEntity
  8
CustomerBuilding
  6
Continuous
 62
   252
100
AcDbLine
 10
615254.2920000028
 20
6498722.069000001
 30
50.74300000000524
 11
615261.3470000029
 21
6498723.462000001
 31
50.74000000000524
  0
LINE
  5
924
330
A07
100
AcDbEntity
  8
CustomerBuilding
  6
Continuous
 62
   252
100
AcDbLine
 10
615261.3470000029
 20
6498723.462000001
 30
50.74000000000524
 11
615260.5719999928
 21
6498727.387000001
 31
50.68500000000524
  0
LINE
  5
925
330
A07
100
AcDbEntity
  8
CustomerBuilding
  6
Continuous
 62
   252
100
AcDbLine
 10
615260.5719999928
 20
6498727.387000001
 30
50.68500000000524
 11
615253.5160000029
 21
6498725.993000002
 31
50.74700000000524
  0
LINE
  5
926
330
A07
100
AcDbEntity
  8
CustomerBuilding
  6
Continuous
 62
   252
100
AcDbLine
 10
615253.5160000029
 20
6498725.993000002
 30
50.74700000000524
 11
615254.2920000028
 21
6498722.069000001
 31
50.74300000000524
  0
HATCH
  5
4B7
330
A07
100
AcDbEntity
  8
CustomerBuilding
 62
    33
100
AcDbHatch
 10
0.0
 20
0.0
 30
0.0
210
0.0
220
0.0
230
1.0
  2
SOLID
 70
     1
 71
     0
 91
        1
 92
        3
 72
     0
 73
     1
 93
        4
 10
615239.7880000068
 20
6498683.577
 10
615246.5829999968
 20
6498683.68
 10
615246.5189999968
 20
6498688.217999999
 10
615239.7290000068
 20
6498688.124
 97
        0
 75
     0
 76
     1
 98
        0
  0
LWPOLYLINE
  5
4B8
330
A07
100
AcDbEntity
  8
CustomerBuilding
  6
Continuous
 62
   252
100
AcDbPolyline
 90
        4
 70
     1
 43
0.0
 38
49.62799999999697
 10
615239.7880000068
 20
6498683.577
 10
615246.5829999968
 20
6498683.68
 10
615246.5189999968
 20
6498688.217999999
 10
615239.7290000068
 20
6498688.124
  0
HATCH
  5
4C3
330
A07
100
AcDbEntity
  8
CustomerBuilding
 62
    33
100
AcDbHatch
 10
0.0
 20
0.0
 30
0.0
210
0.0
220
0.0
230
1.0
  2
SOLID
 70
     1
 71
     0
 91
        1
 92
        3
 72
     0
 73
     1
 93
        4
 10
615443.6099999998
 20
6498428.170999999
 10
615449.5659999998
 20
6498428.643999999
 10
615449.2519999997
 20
6498432.643999999
 10
615443.2939999998
 20
6498432.175999999
 97
        0
 75
     0
 76
     1
 98
        0
  0
LINE
  5
927
330
A07
100
AcDbEntity
  8
CustomerBuilding
  6
Continuous
 62
   252
100
AcDbLine
 10
615443.6099999998
 20
6498428.170999999
 30
50.03299999999441
 11
615449.5659999998
 21
6498428.643999999
 31
50.03299999999441
  0
LINE
  5
928
330
A07
100
AcDbEntity
  8
CustomerBuilding
  6
Continuous
 62
   252
100
AcDbLine
 10
615449.5659999998
 20
6498428.643999999
 30
50.03299999999441
 11
615449.2519999997
 21
6498432.643999999
 31
49.91899999999441
  0
LINE
  5
929
330
A07
100
AcDbEntity
  8
CustomerBuilding
  6
Continuous
 62
   252
100
AcDbLine
 10
615449.2519999997
 20
6498432.643999999
 30
49.91899999999441
 11
615443.2939999998
 21
6498432.175999999
 31
49.91899999999441
  0
LINE
  5
92A
330
A07
100
AcDbEntity
  8
CustomerBuilding
  6
Continuous
 62
   252
100
AcDbLine
 10
615443.2939999998
 20
6498432.175999999
 30
49.91899999999441
 11
615443.6099999998
 21
6498428.170999999
 31
50.03299999999441
  0
HATCH
  5
4CF
330
A07
100
AcDbEntity
  8
CustomerBuilding
 62
    33
100
AcDbHatch
 10
0.0
 20
0.0
 30
0.0
210
0.0
220
0.0
230
1.0
  2
SOLID
 70
     1
 71
     0
 91
        1
 92
        3
 72
     0
 73
     1
 93
        4
 10
615184.5939999983
 20
6498753.982000002
 10
615188.6939999983
 20
6498755.909000002
 10
615186.9399999983
 20
6498759.651000001
 10
615182.8449999982
 20
6498757.735000002
 97
        0
 75
     0
 76
     1
 98
        0
  0
LWPOLYLINE
  5
4D0
330
A07
100
AcDbEntity
  8
CustomerBuilding
  6
Continuous
 62
   252
100
AcDbPolyline
 90
        4
 70
     1
 43
0.0
 38
50.875
 10
615184.5939999983
 20
6498753.982000002
 10
615188.6939999983
 20
6498755.909000002
 10
615186.9399999983
 20
6498759.651000001
 10
615182.8449999982
 20
6498757.735000002
  0
HATCH
  5
4DB
330
A07
100
AcDbEntity
  8
CustomerBuilding
 62
    33
100
AcDbHatch
 10
0.0
 20
0.0
 30
0.0
210
0.0
220
0.0
230
1.0
  2
SOLID
 70
     1
 71
     0
 91
        1
 92
        3
 72
     0
 73
     1
 93
        4
 10
615310.0299999979
 20
6498690.581999999
 10
615340.8299999979
 20
6498698.010999999
 10
615337.7979999979
 20
6498710.580999998
 10
615307.0099999979
 20
6498703.151999999
 97
        0
 75
     0
 76
     1
 98
        0
  0
LINE
  5
92B
330
A07
100
AcDbEntity
  8
CustomerBuilding
  6
Continuous
 62
   252
100
AcDbLine
 10
615310.0299999979
 20
6498690.581999999
 30
52.69100000000617
 11
615340.8299999979
 21
6498698.010999999
 31
52.39900000000617
  0
LINE
  5
92C
330
A07
100
AcDbEntity
  8
CustomerBuilding
  6
Continuous
 62
   252
100
AcDbLine
 10
615340.8299999979
 20
6498698.010999999
 30
52.39900000000617
 11
615337.7979999979
 21
6498710.580999998
 31
52.39900000000617
  0
LINE
  5
92D
330
A07
100
AcDbEntity
  8
CustomerBuilding
  6
Continuous
 62
   252
100
AcDbLine
 10
615337.7979999979
 20
6498710.580999998
 30
52.39900000000617
 11
615307.0099999979
 21
6498703.151999999
 31
52.69100000000617
  0
LINE
  5
92E
330
A07
100
AcDbEntity
  8
CustomerBuilding
  6
Continuous
 62
   252
100
AcDbLine
 10
615307.0099999979
 20
6498703.151999999
 30
52.69100000000617
 11
615310.0299999979
 21
6498690.581999999
 31
52.69100000000617
  0
INSERT
  5
52D
330
A07
100
AcDbEntity
  8
Connectionmanhole_fiber
100
AcDbBlockReference
  2
BASCELB_-16777216_f
 10
615446.9548195825
 20
6498597.695679704
 30
0.0
 41
7.218281064843922
 42
7.218281064843922
  0
INSERT
  5
53C
330
A07
100
AcDbEntity
  8
Customernode
100
AcDbBlockReference
  2
PIPINGPIPE_-9710080_f
 10
615443.22
 20
6498447.11
 30
0.0
 41
1.5
 42
1.5
  0
INSERT
  5
53D
330
A07
100
AcDbEntity
  8
Customernode
100
AcDbBlockReference
  2
PIPINGPIPE_-9710080_f
 10
615550.2
 20
6498728.6
 30
0.0
 41
1.5
 42
1.5
  0
INSERT
  5
53E
330
A07
100
AcDbEntity
  8
Customernode
100
AcDbBlockReference
  2
PIPINGPIPE_-9710080_f
 10
615458.75
 20
6498504.08
 30
0.0
 41
1.5
 42
1.5
  0
INSERT
  5
53F
330
A07
100
AcDbEntity
  8
Customernode
100
AcDbBlockReference
  2
PIPINGPIPE_-9710080_f
 10
615194.08
 20
6498695.32
 30
0.0
 41
1.5
 42
1.5
  0
INSERT
  5
540
330
A07
100
AcDbEntity
  8
Customernode
100
AcDbBlockReference
  2
PIPINGPIPE_-9710080_f
 10
615513.76
 20
6498606.3
 30
0.0
 41
1.5
 42
1.5
  0
INSERT
  5
541
330
A07
100
AcDbEntity
  8
Customernode
100
AcDbBlockReference
  2
PIPINGPIPE_-9710080_f
 10
615217.79
 20
6498768.05
 30
0.0
 41
1.5
 42
1.5
  0
INSERT
  5
54F
330
A07
100
AcDbEntity
  8
Customernode
100
AcDbBlockReference
  2
PIPINGPIPE_-16748289_f
 10
615586.83
 20
6498866.47
 30
0.0
 41
1.5
 42
1.5
  0
INSERT
  5
550
330
A07
100
AcDbEntity
  8
Customernode
100
AcDbBlockReference
  2
PIPINGPIPE_-9710080_f
 10
615235.26
 20
6498709.01
 30
0.0
 41
1.5
 42
1.5
  0
INSERT
  5
551
330
A07
100
AcDbEntity
  8
Customernode
100
AcDbBlockReference
  2
PIPINGPIPE_-9710080_f
 10
615440.92
 20
6498482.21
 30
0.0
 41
1.5
 42
1.5
  0
INSERT
  5
552
330
A07
100
AcDbEntity
  8
Customernode
100
AcDbBlockReference
  2
PIPINGPIPE_-9710080_f
 10
615274.49
 20
6498693.04
 30
0.0
 41
1.5
 42
1.5
  0
INSERT
  5
563
330
A07
100
AcDbEntity
  8
Prospectnode
100
AcDbBlockReference
  2
OPTOODF_-9710080_f
 10
615462.57
 20
6498630.25
 30
0.0
  0
INSERT
  5
573
330
A07
100
AcDbEntity
  8
Prospectnode
100
AcDbBlockReference
  2
OPTOODF_-16777216_f
 10
615446.38
 20
6498430.48
 30
0.0
  0
INSERT
  5
574
330
A07
100
AcDbEntity
  8
Prospectnode
100
AcDbBlockReference
  2
OPTOODF_-16777216_f
 10
615299.84
 20
6498548.32
 30
0.0
  0
INSERT
  5
575
330
A07
100
AcDbEntity
  8
Prospectnode
100
AcDbBlockReference
  2
OPTOODF_-16777216_f
 10
615472.24
 20
6498442.19
 30
0.0
  0
INSERT
  5
576
330
A07
100
AcDbEntity
  8
Prospectnode
100
AcDbBlockReference
  2
OPTOODF_-16777216_f
 10
615331.4
 20
6498527.95
 30
0.0
  0
INSERT
  5
577
330
A07
100
AcDbEntity
  8
Prospectnode
100
AcDbBlockReference
  2
OPTOODF_-16777216_f
 10
615567.47
 20
6498695.15
 30
0.0
  0
INSERT
  5
578
330
A07
100
AcDbEntity
  8
Prospectnode
100
AcDbBlockReference
  2
OPTOODF_-16777216_f
 10
615489.31
 20
6498508.98
 30
0.0
  0
INSERT
  5
579
330
A07
100
AcDbEntity
  8
Prospectnode
100
AcDbBlockReference
  2
OPTOODF_-16777216_f
 10
615505.18
 20
6498488.97
 30
0.0
  0
INSERT
  5
57A
330
A07
100
AcDbEntity
  8
Prospectnode
100
AcDbBlockReference
  2
OPTOODF_-16777216_f
 10
615206.91
 20
6498700.07
 30
0.0
  0
INSERT
  5
57B
330
A07
100
AcDbEntity
  8
Prospectnode
100
AcDbBlockReference
  2
OPTOODF_-16777216_f
 10
615543.6
 20
6498606.62
 30
0.0
  0
INSERT
  5
57C
330
A07
100
AcDbEntity
  8
Prospectnode
100
AcDbBlockReference
  2
OPTOODF_-16777216_f
 10
615544.27
 20
6498567.47
 30
0.0
  0
INSERT
  5
57D
330
A07
100
AcDbEntity
  8
Prospectnode
100
AcDbBlockReference
  2
OPTOODF_-16777216_f
 10
615555.52
 20
6498604.2
 30
0.0
  0
INSERT
  5
57E
330
A07
100
AcDbEntity
  8
Prospectnode
100
AcDbBlockReference
  2
OPTOODF_-16777216_f
 10
615206.86
 20
6498789.29
 30
0.0
  0
INSERT
  5
57F
330
A07
100
AcDbEntity
  8
Prospectnode
100
AcDbBlockReference
  2
OPTOODF_-16777216_f
 10
615248.98
 20
6498743.66
 30
0.0
  0
INSERT
  5
580
330
A07
100
AcDbEntity
  8
Prospectnode
100
AcDbBlockReference
  2
OPTOODF_-16777216_f
 10
615550.42
 20
6498894.73
 30
0.0
  0
INSERT
  5
581
330
A07
100
AcDbEntity
  8
Prospectnode
100
AcDbBlockReference
  2
OPTOODF_-9710080_f
 10
615388.45
 20
6498758.71
 30
0.0
  0
INSERT
  5
582
330
A07
100
AcDbEntity
  8
Prospectnode
100
AcDbBlockReference
  2
OPTOODF_-16777216_f
 10
615363.16
 20
6498758.89
 30
0.0
  0
INSERT
  5
583
330
A07
100
AcDbEntity
  8
Prospectnode
100
AcDbBlockReference
  2
OPTOODF_-16777216_f
 10
615243.16
 20
6498685.9
 30
0.0
  0
INSERT
  5
584
330
A07
100
AcDbEntity
  8
Prospectnode
100
AcDbBlockReference
  2
OPTOODF_-16777216_f
 10
615584.05
 20
6498579.21
 30
0.0
  0
INSERT
  5
585
330
A07
100
AcDbEntity
  8
Prospectnode
100
AcDbBlockReference
  2
OPTOODF_-16777216_f
 10
615588.49
 20
6498586.55
 30
0.0
  0
INSERT
  5
586
330
A07
100
AcDbEntity
  8
Prospectnode
100
AcDbBlockReference
  2
OPTOODF_-16777216_f
 10
615472.61
 20
6498461.81
 30
0.0
  0
INSERT
  5
587
330
A07
100
AcDbEntity
  8
Prospectnode
100
AcDbBlockReference
  2
OPTOODF_-16777216_f
 10
615473.65
 20
6498476.81
 30
0.0
  0
INSERT
  5
588
330
A07
100
AcDbEntity
  8
Prospectnode
100
AcDbBlockReference
  2
OPTOODF_-16777216_f
 10
615045.5
 20
6498737.19
 30
0.0
  0
INSERT
  5
589
330
A07
100
AcDbEntity
  8
Prospectnode
100
AcDbBlockReference
  2
OPTOODF_-9710080_f
 10
615082.63
 20
6498720.56
 30
0.0
  0
INSERT
  5
58A
330
A07
100
AcDbEntity
  8
Prospectnode
100
AcDbBlockReference
  2
OPTOODF_-16777216_f
 10
615275.5
 20
6498726.58
 30
0.0
  0
INSERT
  5
58B
330
A07
100
AcDbEntity
  8
Prospectnode
100
AcDbBlockReference
  2
OPTOODF_-16777216_f
 10
615257.44
 20
6498724.73
 30
0.0
  0
INSERT
  5
58C
330
A07
100
AcDbEntity
  8
Prospectnode
100
AcDbBlockReference
  2
OPTOODF_-16777216_f
 10
615375.68
 20
6498711.58
 30
0.0
  0
INSERT
  5
58D
330
A07
100
AcDbEntity
  8
Prospectnode
100
AcDbBlockReference
  2
OPTOODF_-16777216_f
 10
615329.33
 20
6498701.89
 30
0.0
  0
INSERT
  5
58F
330
A07
100
AcDbEntity
  8
Outdoorcabinet
100
AcDbBlockReference
  2
OPTOODF_-16777216_f
 10
615481.7028418998
 20
6498565.585879959
 30
0.0
 41
3.609140532421961
 42
3.609140532421961
 50
337.3217575109269
  0
TEXT
  5
591
330
A07
100
AcDbEntity
  8
Route_aerial
100
AcDbText
 10
615486.4083723875
 20
6498570.968902647
 30
0.0
 40
0.7692307692307692
  1
VT2007-B3_01 - 4x5/3.5
100
AcDbText
  0
TEXT
  5
592
330
A07
100
AcDbEntity
  8
Route_aerial
100
AcDbText
 10
615486.4083723875
 20
6498569.718902647
 30
0.0
 40
0.7692307692307692
  1
    -C2007-LP4 - 4f
100
AcDbText
  0
TEXT
  5
593
330
A07
100
AcDbEntity
  8
Route_aerial
100
AcDbText
 10
615486.4083723875
 20
6498568.468902647
 30
0.0
 40
0.7692307692307692
  1
    -C2007-LP3 - 4f
100
AcDbText
  0
TEXT
  5
594
330
A07
100
AcDbEntity
  8
Route_aerial
100
AcDbText
 10
615486.4083723875
 20
6498567.218902647
 30
0.0
 40
0.7692307692307692
  1
    -C2007-LP2 - 4f
100
AcDbText
  0
TEXT
  5
595
330
A07
100
AcDbEntity
  8
Route_aerial
100
AcDbText
 10
615486.4083723875
 20
6498565.968902647
 30
0.0
 40
0.7692307692307692
  1

100
AcDbText
  0
TEXT
  5
596
330
A07
100
AcDbEntity
  8
Route_aerial
100
AcDbText
 10
615465.1525504731
 20
6498562.109740789
 30
0.0
 40
0.7692307692307692
  1
VT2007-B2_01 - 4x5/3.5
100
AcDbText
  0
TEXT
  5
597
330
A07
100
AcDbEntity
  8
Route_aerial
100
AcDbText
 10
615465.1525504731
 20
6498560.859740789
 30
0.0
 40
0.7692307692307692
  1
    -C2007-LP6 - 4f
100
AcDbText
  0
TEXT
  5
598
330
A07
100
AcDbEntity
  8
Route_aerial
100
AcDbText
 10
615465.1525504731
 20
6498559.609740789
 30
0.0
 40
0.7692307692307692
  1
    -C2007-LP5 - 4f
100
AcDbText
  0
TEXT
  5
599
330
A07
100
AcDbEntity
  8
Route_aerial
100
AcDbText
 10
615465.1525504731
 20
6498558.359740789
 30
0.0
 40
0.7692307692307692
  1

100
AcDbText
  0
TEXT
  5
59A
330
A07
100
AcDbEntity
  8
Route_aerial
100
AcDbText
 10
615420.4431462152
 20
6498598.89525032
 30
0.0
 40
0.7692307692307692
  1
VT2007-B1 - 12x5/3.5+1x12/10
100
AcDbText
  0
TEXT
  5
59B
330
A07
100
AcDbEntity
  8
Route_aerial
100
AcDbText
 10
615420.4431462152
 20
6498597.64525032
 30
0.0
 40
0.7692307692307692
  1
    -C2007-LP7 - 4f
100
AcDbText
  0
TEXT
  5
59C
330
A07
100
AcDbEntity
  8
Route_aerial
100
AcDbText
 10
615420.4431462152
 20
6498596.39525032
 30
0.0
 40
0.7692307692307692
  1
    -C2007-LP10 - 4f
100
AcDbText
  0
TEXT
  5
59D
330
A07
100
AcDbEntity
  8
Route_aerial
100
AcDbText
 10
615420.4431462152
 20
6498595.14525032
 30
0.0
 40
0.7692307692307692
  1
    -C2007-LP9 - 4f
100
AcDbText
  0
TEXT
  5
59E
330
A07
100
AcDbEntity
  8
Route_aerial
100
AcDbText
 10
615420.4431462152
 20
6498593.89525032
 30
0.0
 40
0.7692307692307692
  1
    -C2007-LP8 - 12f
100
AcDbText
  0
TEXT
  5
59F
330
A07
100
AcDbEntity
  8
Route_aerial
100
AcDbText
 10
615420.4431462152
 20
6498592.64525032
 30
0.0
 40
0.7692307692307692
  1
    -C2007-LP1 - 4f
100
AcDbText
  0
TEXT
  5
5A0
330
A07
100
AcDbEntity
  8
Route_aerial
100
AcDbText
 10
615420.4431462152
 20
6498591.39525032
 30
0.0
 40
0.7692307692307692
  1

100
AcDbText
  0
TEXT
  5
5A1
330
A07
100
AcDbEntity
  8
Route_aerial
100
AcDbText
 10
615467.8137701476
 20
6498578.222660282
 30
0.0
 40
0.7692307692307692
  1
VT2007-F - 12x5/3.5+1x12/10
 50
-13.54016229411286
100
AcDbText
  0
TEXT
  5
5A2
330
A07
100
AcDbEntity
  8
Route_aerial
100
AcDbText
 10
615467.5211115476
 20
6498577.007402682
 30
0.0
 40
0.7692307692307692
  1
    VT2007-O - 48f
 50
-13.54016238722684
100
AcDbText
  0
TEXT
  5
5A3
330
A07
100
AcDbEntity
  8
Route_aerial
100
AcDbText
 10
615467.2284528476
 20
6498575.792145181
 30
0.0
 40
0.7692307692307692
  1
    -C2007-LP7 - 4f
 50
-13.54016229411286
100
AcDbText
  0
TEXT
  5
5A4
330
A07
100
AcDbEntity
  8
Route_aerial
100
AcDbText
 10
615466.9357942477
 20
6498574.576887581
 30
0.0
 40
0.7692307692307692
  1
    -C2007-LP10 - 4f
 50
-13.54016229422126
100
AcDbText
  0
TEXT
  5
5A5
330
A07
100
AcDbEntity
  8
Route_aerial
100
AcDbText
 10
615466.6431356476
 20
6498573.361630082
 30
0.0
 40
0.7692307692307692
  1
    -C2007-LP9 - 4f
 50
-13.54016238722684
100
AcDbText
  0
TEXT
  5
5A6
330
A07
100
AcDbEntity
  8
Route_aerial
100
AcDbText
 10
615466.3504770476
 20
6498572.146372481
 30
0.0
 40
0.7692307692307692
  1
    -C2007-LP8 - 12f
 50
-13.54016238722684
100
AcDbText
  0
TEXT
  5
5A7
330
A07
100
AcDbEntity
  8
Route_aerial
100
AcDbText
 10
615466.0578183476
 20
6498570.931114982
 30
0.0
 40
0.7692307692307692
  1
    -C2007-LP1 - 4f
 50
-13.54016229411286
100
AcDbText
  0
TEXT
  5
5A8
330
A07
100
AcDbEntity
  8
Route_aerial
100
AcDbText
 10
615465.7651597477
 20
6498569.715857382
 30
0.0
 40
0.7692307692307692
  1
    -C2007-LP11 - 4f
 50
-13.54016229422126
100
AcDbText
  0
TEXT
  5
5A9
330
A07
100
AcDbEntity
  8
Route_aerial
100
AcDbText
 10
615465.4725011477
 20
6498568.500599882
 30
0.0
 40
0.7692307692307692
  1

 50
-13.54016238733524
100
AcDbText
  0
TEXT
  5
5AB
330
A07
100
AcDbEntity
  8
Drop_offpointLP
100
AcDbText
 10
615385.0106660622
 20
6498725.760320609
 30
0.0
 40
4.442019116827028
  1
C2007-LP1
100
AcDbText
  0
TEXT
  5
5AC
330
A07
100
AcDbEntity
  8
Drop_offpointLP
100
AcDbText
 10
615534.4325875129
 20
6498607.391381479
 30
0.0
 40
4.442019116827028
  1
C2007-LP2
100
AcDbText
  0
TEXT
  5
5AD
330
A07
100
AcDbEntity
  8
Drop_offpointLP
100
AcDbText
 10
615561.6301986175
 20
6498712.281793391
 30
0.0
 40
4.442019116827028
  1
C2007-LP3
100
AcDbText
  0
TEXT
  5
5AE
330
A07
100
AcDbEntity
  8
Drop_offpointLP
100
AcDbText
 10
615597.6268357799
 20
6498852.083336163
 30
0.0
 40
4.442019116827028
  1
C2007-LP4
100
AcDbText
  0
TEXT
  5
5AF
330
A07
100
AcDbEntity
  8
Drop_offpointLP
100
AcDbText
 10
615435.0506689603
 20
6498498.896472587
 30
0.0
 40
4.442019116827028
  1
C2007-LP5
100
AcDbText
  0
TEXT
  5
5B0
330
A07
100
AcDbEntity
  8
Drop_offpointLP
100
AcDbText
 10
615418.4176259827
 20
6498462.858212803
 30
0.0
 40
4.442019116827028
  1
C2007-LP6
100
AcDbText
  0
TEXT
  5
5B1
330
A07
100
AcDbEntity
  8
Drop_offpointLP
100
AcDbText
 10
615256.1635781074
 20
6498706.964165227
 30
0.0
 40
4.442019116827028
  1
C2007-LP7
100
AcDbText
  0
TEXT
  5
5B2
330
A07
100
AcDbEntity
  8
Drop_offpointLP
100
AcDbText
 10
615220.8206800596
 20
6498786.20793608
 30
0.0
 40
4.442019116827028
  1
C2007-LP8
100
AcDbText
  0
TEXT
  5
5B3
330
A07
100
AcDbEntity
  8
Drop_offpointLP
100
AcDbText
 10
615088.0671489694
 20
6498719.364462247
 30
0.0
 40
4.442019116827028
  1
C2007-LP9
100
AcDbText
  0
TEXT
  5
5B4
330
A07
100
AcDbEntity
  8
Drop_offpointLP
100
AcDbText
 10
615168.4077763379
 20
6498756.132080879
 30
0.0
 40
4.442019116827028
  1
C2007-LP10
100
AcDbText
  0
TEXT
  5
5B5
330
A07
100
AcDbEntity
  8
Drop_offpointLP
100
AcDbText
 10
615446.4379970863
 20
6498595.920172248
 30
0.0
 40
4.442019116827028
  1
C2007-LP11
100
AcDbText
  0
LWPOLYLINE
  5
5BA
330
A07
100
AcDbEntity
  8
Route_ground_uncertainlocation
  6
DASH2
 62
     5
100
AcDbPolyline
 90
        2
 70
     0
 43
2.165484428405762
 10
615446.4379970863
 20
6498597.920172248
 10
615462.5699999863
 20
6498630.250000048
  0
LWPOLYLINE
  5
5BF
330
A07
100
AcDbEntity
  8
Route_easy_uncertainlocation_
  6
DASH2
 62
   160
100
AcDbPolyline
 90
        2
 70
     0
 43
2.165484428405762
 10
615446.9548195825
 20
6498597.695679704
 10
615446.4995323635
 20
6498597.516681389
  0
LWPOLYLINE
  5
5C3
330
A07
100
AcDbEntity
  8
Route_easy_uncertainlocation_
  6
DASH2
 62
   160
100
AcDbPolyline
 90
        2
 70
     0
 43
2.165484428405762
 10
615431.5482156839
 20
6498591.638500818
 10
615421.9508130839
 20
6498585.219018418
  0
LWPOLYLINE
  5
5C7
330
A07
100
AcDbEntity
  8
Route_easy_uncertainlocation_
  6
DASH2
 62
   160
100
AcDbPolyline
 90
        2
 70
     0
 43
2.165484428405762
 10
615446.4379970863
 20
6498597.920172248
 10
615446.4995323634
 20
6498597.516681389
  0
LWPOLYLINE
  5
5CE
330
A07
100
AcDbEntity
  8
Route_hard_uncertainlocation_
  6
DASH2
 62
     5
100
AcDbPolyline
 90
        3
 70
     0
 43
2.165484428405762
 10
615480.5090737301
 20
6498563.570974977
 10
615479.8637677
 20
6498564.530115137
 10
615481.7028418801
 20
6498565.585880017
  0
LWPOLYLINE
  5
5E2
330
A07
100
AcDbEntity
  8
Route_hard_uncertainlocation_
  6
DASH2
 62
     5
100
AcDbPolyline
 90
       10
 70
     0
 43
2.165484428405762
 10
615384.7209255489
 20
6498726.652790101
 10
615382.011171249
 20
6498724.552397301
 10
615348.8236774489
 20
6498721.325326101
 10
615330.634730649
 20
6498719.931818102
 10
615311.9690573489
 20
6498721.435339902
 10
615299.7941977489
 20
6498727.816139801
 10
615292.8266576489
 20
6498733.243486901
 10
615291.892377949
 20
6498733.828957101
 10
615291.644976949
 20
6498736.972405301
 10
615291.320122149
 20
6498737.255071601
  0
LWPOLYLINE
  5
5E7
330
A07
100
AcDbEntity
  8
Route_drilled_uncertainlocatio
  6
DASH2
 62
   160
100
AcDbPolyline
 90
        2
 70
     0
 43
2.165484428405762
 10
615446.4995323634
 20
6498597.516681389
 10
615431.5482156634
 20
6498591.638500789
  0
LWPOLYLINE
  5
5F2
330
A07
100
AcDbEntity
  8
Route_aerial
  6
Continuous
 62
     6
100
AcDbPolyline
 90
        5
 70
     0
 43
2.165484428405762
 10
615384.7209255489
 20
6498726.652790101
 10
615390.4184175489
 20
6498688.872502102
 10
615400.9797415489
 20
6498654.328172102
 10
615411.459280549
 20
6498619.831126101
 10
615411.463851549
 20
6498619.816045101
  0
LWPOLYLINE
  5
5F8
330
A07
100
AcDbEntity
  8
Route_aerial
  6
Continuous
 62
     6
100
AcDbPolyline
 90
        3
 70
     0
 43
2.165484428405762
 10
615480.5090737301
 20
6498563.570974977
 10
615527.0904387301
 20
6498574.440279976
 10
615535.9200019301
 20
6498609.011492576
  0
LWPOLYLINE
  5
600
330
A07
100
AcDbEntity
  8
Route_aerial
  6
Continuous
 62
     6
100
AcDbPolyline
 90
        4
 70
     0
 43
2.165484428405762
 10
615257.4394752856
 20
6498709.008428537
 10
615293.0719022856
 20
6498708.261963537
 10
615291.3255422856
 20
6498737.251540537
 10
615291.3201221856
 20
6498737.255071538
  0
LWPOLYLINE
  5
604
330
A07
100
AcDbEntity
  8
Route_aerial
  6
Continuous
 62
     6
100
AcDbPolyline
 90
        2
 70
     0
 43
2.165484428405762
 10
615168.0055865038
 20
6498758.996013754
 10
615172.7303115138
 20
6498766.138543624
  0
LWPOLYLINE
  5
60C
330
A07
100
AcDbEntity
  8
Route_aerial
  6
Continuous
 62
     6
100
AcDbPolyline
 90
        4
 70
     0
 43
2.165484428405762
 10
615172.7303115183
 20
6498766.138543623
 10
615172.7124253183
 20
6498766.129817523
 10
615130.7997833183
 20
6498743.194288524
 10
615088.9453533184
 20
6498720.316971524
  0
LWPOLYLINE
  5
614
330
A07
100
AcDbEntity
  8
Route_aerial
  6
Continuous
 62
     6
100
AcDbPolyline
 90
        4
 70
     0
 43
2.165484428405762
 10
615291.3201221725
 20
6498737.255071555
 10
615255.5833721724
 20
6498760.536341555
 10
615221.0913221724
 20
6498789.732240555
 10
615220.2720267725
 20
6498789.332534155
  0
LWPOLYLINE
  5
618
330
A07
100
AcDbEntity
  8
Route_aerial
  6
Continuous
 62
     6
100
AcDbPolyline
 90
        2
 70
     0
 43
2.165484428405762
 10
615385.0106660622
 20
6498727.760320609
 10
615384.7209255522
 20
6498726.652790099
  0
LWPOLYLINE
  5
624
330
A07
100
AcDbEntity
  8
Route_aerial
  6
Continuous
 62
     6
100
AcDbPolyline
 90
        6
 70
     0
 43
2.165484428405762
 10
615535.9200019484
 20
6498609.011492585
 10
615535.9966259483
 20
6498609.311504585
 10
615544.8789119484
 20
6498644.102438585
 10
615553.8267009484
 20
6498678.940138585
 10
615562.7011469484
 20
6498713.741168585
 10
615562.7651729484
 20
6498713.991471585
  0
LWPOLYLINE
  5
628
330
A07
100
AcDbEntity
  8
Route_aerial
  6
Continuous
 62
     6
100
AcDbPolyline
 90
        2
 70
     0
 43
2.165484428405762
 10
615534.4325875129
 20
6498609.391381479
 10
615535.9200019529
 20
6498609.011492589
  0
LWPOLYLINE
  5
630
330
A07
100
AcDbEntity
  8
Route_aerial
  6
Continuous
 62
     6
100
AcDbPolyline
 90
        4
 70
     0
 43
2.165484428405762
 10
615562.7651734019
 20
6498713.991471364
 10
615571.5831624019
 20
6498748.464207364
 10
615583.3179674019
 20
6498797.603700364
 10
615598.3156224019
 20
6498852.928012365
  0
LWPOLYLINE
  5
634
330
A07
100
AcDbEntity
  8
Route_aerial
  6
Continuous
 62
     6
100
AcDbPolyline
 90
        2
 70
     0
 43
2.165484428405762
 10
615561.6301986175
 20
6498714.281793391
 10
615562.7651733975
 20
6498713.991471361
  0
LWPOLYLINE
  5
638
330
A07
100
AcDbEntity
  8
Route_aerial
  6
Continuous
 62
     6
100
AcDbPolyline
 90
        2
 70
     0
 43
2.165484428405762
 10
615597.6268357799
 20
6498854.083336163
 10
615598.3156218498
 20
6498852.928013483
  0
LWPOLYLINE
  5
63E
330
A07
100
AcDbEntity
  8
Route_aerial
  6
Continuous
 62
     6
100
AcDbPolyline
 90
        3
 70
     0
 43
2.165484428405762
 10
615434.0032058408
 20
6498501.385564674
 10
615450.6206239408
 20
6498536.974225974
 10
615480.5090739408
 20
6498563.570974974
  0
LWPOLYLINE
  5
644
330
A07
100
AcDbEntity
  8
Route_aerial
  6
Continuous
 62
     6
100
AcDbPolyline
 90
        3
 70
     0
 43
2.165484428405762
 10
615417.3151818315
 20
6498465.368997203
 10
615433.8960179315
 20
6498501.156005903
 10
615434.0032058315
 20
6498501.385564703
  0
LWPOLYLINE
  5
648
330
A07
100
AcDbEntity
  8
Route_aerial
  6
Continuous
 62
     6
100
AcDbPolyline
 90
        2
 70
     0
 43
2.165484428405762
 10
615418.4176259827
 20
6498464.858212803
 10
615417.3151818326
 20
6498465.368997202
  0
LWPOLYLINE
  5
64C
330
A07
100
AcDbEntity
  8
Route_aerial
  6
Continuous
 62
     6
100
AcDbPolyline
 90
        2
 70
     0
 43
2.165484428405762
 10
615435.0506689603
 20
6498500.896472587
 10
615434.0032058404
 20
6498501.385564677
  0
LWPOLYLINE
  5
650
330
A07
100
AcDbEntity
  8
Route_aerial
  6
Continuous
 62
     6
100
AcDbPolyline
 90
        2
 70
     0
 43
2.165484428405762
 10
615411.4638517996
 20
6498619.816045309
 10
615421.9508130996
 20
6498585.219018409
  0
LWPOLYLINE
  5
654
330
A07
100
AcDbEntity
  8
Route_aerial
  6
Continuous
 62
     6
100
AcDbPolyline
 90
        2
 70
     0
 43
2.165484428405762
 10
615256.1635781074
 20
6498708.964165227
 10
615257.4394752873
 20
6498709.008428536
  0
LWPOLYLINE
  5
658
330
A07
100
AcDbEntity
  8
Route_aerial
  6
Continuous
 62
     6
100
AcDbPolyline
 90
        2
 70
     0
 43
2.165484428405762
 10
615220.2720268111
 20
6498789.332534136
 10
615172.7303112112
 20
6498766.138543536
  0
LWPOLYLINE
  5
65C
330
A07
100
AcDbEntity
  8
Route_aerial
  6
Continuous
 62
     6
100
AcDbPolyline
 90
        2
 70
     0
 43
2.165484428405762
 10
615220.8206800596
 20
6498788.20793608
 10
615220.2720268096
 20
6498789.33253414
  0
LWPOLYLINE
  5
660
330
A07
100
AcDbEntity
  8
Route_aerial
  6
Continuous
 62
     6
100
AcDbPolyline
 90
        2
 70
     0
 43
2.165484428405762
 10
615088.0671489694
 20
6498721.364462247
 10
615088.9453533994
 20
6498720.316971057
  0
LWPOLYLINE
  5
664
330
A07
100
AcDbEntity
  8
Route_aerial
  6
Continuous
 62
     6
100
AcDbPolyline
 90
        2
 70
     0
 43
2.165484428405762
 10
615168.4077763379
 20
6498758.132080879
 10
615168.0055865039
 20
6498758.996013754
  0
LWPOLYLINE
  5
66A
330
A07
100
AcDbEntity
  8
Route_aerial
  6
Continuous
 62
     6
100
AcDbPolyline
 90
        3
 70
     0
 43
2.165484428405762
 10
615421.950813085
 20
6498585.219018414
 10
615421.955414485
 20
6498585.203838114
 10
615480.5090734849
 20
6498563.570975114
  0
LWPOLYLINE
  5
66E
330
A07
100
AcDbEntity
  8
Route_aerial
  6
Continuous
 62
     6
100
AcDbPolyline
 90
        2
 70
     0
 43
2.165484428405762
 10
615597.6268357799
 20
6498854.083336163
 10
615586.8299999798
 20
6498866.469999963
  0
LWPOLYLINE
  5
672
330
A07
100
AcDbEntity
  8
Route_aerial
  6
Continuous
 62
     6
100
AcDbPolyline
 90
        2
 70
     0
 43
2.165484428405762
 10
615256.1635781074
 20
6498708.964165227
 10
615235.2600000073
 20
6498709.010000027
  0
LWPOLYLINE
  5
676
330
A07
100
AcDbEntity
  8
Route_aerial
  6
Continuous
 62
     6
100
AcDbPolyline
 90
        2
 70
     0
 43
2.165484428405762
 10
615435.0506689603
 20
6498500.896472587
 10
615440.9199999603
 20
6498482.209999987
  0
LWPOLYLINE
  5
67A
330
A07
100
AcDbEntity
  8
Route_aerial
  6
Continuous
 62
     6
100
AcDbPolyline
 90
        2
 70
     0
 43
2.165484428405762
 10
615418.4176259827
 20
6498464.858212803
 10
615443.2199999826
 20
6498447.110000002
  0
LWPOLYLINE
  5
67E
330
A07
100
AcDbEntity
  8
Route_aerial
  6
Continuous
 62
     6
100
AcDbPolyline
 90
        2
 70
     0
 43
2.165484428405762
 10
615220.8206800596
 20
6498788.20793608
 10
615217.7899999596
 20
6498768.04999998
  0
LWPOLYLINE
  5
682
330
A07
100
AcDbEntity
  8
Route_aerial
  6
Continuous
 62
     6
100
AcDbPolyline
 90
        2
 70
     0
 43
2.165484428405762
 10
615561.6301986175
 20
6498714.281793391
 10
615550.2000000174
 20
6498728.599999991
  0
LWPOLYLINE
  5
686
330
A07
100
AcDbEntity
  8
Route_aerial
  6
Continuous
 62
     6
100
AcDbPolyline
 90
        2
 70
     0
 43
2.165484428405762
 10
615168.4077763379
 20
6498758.132080879
 10
615194.0800000379
 20
6498695.319999979
  0
LWPOLYLINE
  5
68A
330
A07
100
AcDbEntity
  8
Route_aerial
  6
Continuous
 62
     6
100
AcDbPolyline
 90
        2
 70
     0
 43
2.165484428405762
 10
615435.0506689603
 20
6498500.896472587
 10
615458.7499999603
 20
6498504.079999987
  0
LWPOLYLINE
  5
68E
330
A07
100
AcDbEntity
  8
Route_aerial
  6
Continuous
 62
     6
100
AcDbPolyline
 90
        2
 70
     0
 43
2.165484428405762
 10
615534.4325875129
 20
6498609.391381479
 10
615513.7600000129
 20
6498606.299999979
  0
LWPOLYLINE
  5
692
330
A07
100
AcDbEntity
  8
Route_aerial
  6
Continuous
 62
     6
100
AcDbPolyline
 90
        2
 70
     0
 43
2.165484428405762
 10
615256.1635781074
 20
6498708.964165227
 10
615274.4900000073
 20
6498693.040000026
  0
LWPOLYLINE
  5
696
330
A07
100
AcDbEntity
  8
Route_aerial
  6
Continuous
 62
     6
100
AcDbPolyline
 90
        2
 70
     0
 43
2.165484428405762
 10
615385.0106660622
 20
6498727.760320609
 10
615388.4499999622
 20
6498758.710000009
  0
LWPOLYLINE
  5
69A
330
A07
100
AcDbEntity
  8
Route_aerial
  6
Continuous
 62
     6
100
AcDbPolyline
 90
        2
 70
     0
 43
2.165484428405762
 10
615082.63
 20
6498720.56
 10
615088.06714897
 20
6498721.36446225
  0
TEXT
  5
69C
330
A07
100
AcDbEntity
  8
Connectionmanhole_fiber
100
AcDbText
 10
615451.0355241568
 20
6498589.502178284
 30
0.0
 40
5.552523896033786
  1
ELASA
 11
615451.0355241568
 21
6498595.05470218
 31
0.0
100
AcDbText
 73
     3
  0
INSERT
  5
6B3
330
A07
100
AcDbEntity
  8
Drop_offpointLP
100
AcDbBlockReference
  2
BASCELSFIX_-16777216_f
 10
615385.0106660622
 20
6498727.760320609
 30
0.0
 41
3.609140532421961
 42
3.609140532421961
  0
INSERT
  5
6B4
330
A07
100
AcDbEntity
  8
Drop_offpointLP
100
AcDbBlockReference
  2
BASCELSFIX_-16777216_f
 10
615534.4325875129
 20
6498609.391381479
 30
0.0
 41
3.609140532421961
 42
3.609140532421961
  0
INSERT
  5
6B5
330
A07
100
AcDbEntity
  8
Drop_offpointLP
100
AcDbBlockReference
  2
BASCELSFIX_-16777216_f
 10
615561.6301986175
 20
6498714.281793391
 30
0.0
 41
3.609140532421961
 42
3.609140532421961
  0
INSERT
  5
6B6
330
A07
100
AcDbEntity
  8
Drop_offpointLP
100
AcDbBlockReference
  2
BASCELSFIX_-16777216_f
 10
615597.6268357799
 20
6498854.083336163
 30
0.0
 41
3.609140532421961
 42
3.609140532421961
  0
INSERT
  5
6B7
330
A07
100
AcDbEntity
  8
Drop_offpointLP
100
AcDbBlockReference
  2
BASCELSFIX_-16777216_f
 10
615435.0506689603
 20
6498500.896472587
 30
0.0
 41
3.609140532421961
 42
3.609140532421961
  0
INSERT
  5
6B8
330
A07
100
AcDbEntity
  8
Drop_offpointLP
100
AcDbBlockReference
  2
BASCELSFIX_-16777216_f
 10
615418.4176259827
 20
6498464.858212803
 30
0.0
 41
3.609140532421961
 42
3.609140532421961
  0
INSERT
  5
6B9
330
A07
100
AcDbEntity
  8
Drop_offpointLP
100
AcDbBlockReference
  2
BASCELSFIX_-16777216_f
 10
615256.1635781074
 20
6498708.964165227
 30
0.0
 41
3.609140532421961
 42
3.609140532421961
  0
INSERT
  5
6BA
330
A07
100
AcDbEntity
  8
Drop_offpointLP
100
AcDbBlockReference
  2
BASCELSFIX_-16777216_f
 10
615220.8206800596
 20
6498788.20793608
 30
0.0
 41
3.609140532421961
 42
3.609140532421961
  0
INSERT
  5
6BB
330
A07
100
AcDbEntity
  8
Drop_offpointLP
100
AcDbBlockReference
  2
BASCELSFIX_-16777216_f
 10
615088.0671489694
 20
6498721.364462247
 30
0.0
 41
3.609140532421961
 42
3.609140532421961
  0
INSERT
  5
6BC
330
A07
100
AcDbEntity
  8
Drop_offpointLP
100
AcDbBlockReference
  2
BASCELSFIX_-16777216_f
 10
615168.4077763379
 20
6498758.132080879
 30
0.0
 41
3.609140532421961
 42
3.609140532421961
  0
INSERT
  5
6BD
330
A07
100
AcDbEntity
  8
Drop_offpointLP
100
AcDbBlockReference
  2
BASCELSFIX_-16777216_f
 10
615446.4379970863
 20
6498597.920172248
 30
0.0
 41
3.609140532421961
 42
3.609140532421961
  0
LWPOLYLINE
  5
6C4
330
A07
100
AcDbEntity
  8
Pipenode
  6
Continuous
 62
     7
100
AcDbPolyline
 90
        3
 70
     0
 43
2.0
 10
615385.0191651557
 20
6498724.675151829
 10
615384.7209255457
 20
6498726.652790098
 10
615385.0106660657
 20
6498727.760320609
  0
LWPOLYLINE
  5
6CE
330
A07
100
AcDbEntity
  8
Pipenode
  6
Continuous
 62
     7
100
AcDbPolyline
 90
        5
 70
     0
 43
2.0
 10
615291.7681124284
 20
6498735.407860287
 10
615291.6449769484
 20
6498736.972405298
 10
615291.3201221484
 20
6498737.255071597
 10
615291.3255422884
 20
6498737.251540538
 10
615291.4454172084
 20
6498735.261616788
  0
LWPOLYLINE
  5
6D4
330
A07
100
AcDbEntity
  8
Pipenode
  6
Continuous
 62
     7
100
AcDbPolyline
 90
        3
 70
     0
 43
2.0
 10
615385.0191651557
 20
6498724.675151829
 10
615384.7209255457
 20
6498726.652790098
 10
615383.1401895657
 20
6498725.427525328
  0
LWPOLYLINE
  5
6DA
330
A07
100
AcDbEntity
  8
Pipenode
  6
Continuous
 62
     7
100
AcDbPolyline
 90
        3
 70
     0
 43
2.0
 10
615385.0191651557
 20
6498724.675151829
 10
615384.7209255457
 20
6498726.652790098
 10
615383.1401895657
 20
6498725.427525328
  0
LWPOLYLINE
  5
6E0
330
A07
100
AcDbEntity
  8
Pipenode
  6
Continuous
 62
     7
100
AcDbPolyline
 90
        3
 70
     0
 43
2.0
 10
615385.0191651557
 20
6498724.675151829
 10
615384.7209255457
 20
6498726.652790098
 10
615383.1401895657
 20
6498725.427525328
  0
LWPOLYLINE
  5
6E6
330
A07
100
AcDbEntity
  8
Pipenode
  6
Continuous
 62
     7
100
AcDbPolyline
 90
        3
 70
     0
 43
2.0
 10
615385.0191651557
 20
6498724.675151829
 10
615384.7209255457
 20
6498726.652790098
 10
615383.1401895657
 20
6498725.427525328
  0
LWPOLYLINE
  5
6EE
330
A07
100
AcDbEntity
  8
Pipenode
  6
Continuous
 62
     7
100
AcDbPolyline
 90
        4
 70
     0
 43
2.0
 10
615291.7681124284
 20
6498735.407860287
 10
615291.6449769484
 20
6498736.972405298
 10
615291.3201221484
 20
6498737.255071597
 10
615289.6443582184
 20
6498738.346774437
  0
LWPOLYLINE
  5
6F6
330
A07
100
AcDbEntity
  8
Pipenode
  6
Continuous
 62
     7
100
AcDbPolyline
 90
        4
 70
     0
 43
2.0
 10
615291.7681124284
 20
6498735.407860287
 10
615291.6449769484
 20
6498736.972405298
 10
615291.3201221484
 20
6498737.255071597
 10
615289.6443582184
 20
6498738.346774437
  0
LWPOLYLINE
  5
6FE
330
A07
100
AcDbEntity
  8
Pipenode
  6
Continuous
 62
     7
100
AcDbPolyline
 90
        4
 70
     0
 43
2.0
 10
615221.9220711114
 20
6498789.029050628
 10
615221.0913221714
 20
6498789.732240558
 10
615220.2720268114
 20
6498789.332534138
 10
615220.8206800614
 20
6498788.207936077
  0
LWPOLYLINE
  5
706
330
A07
100
AcDbEntity
  8
Pipenode
  6
Continuous
 62
     7
100
AcDbPolyline
 90
        4
 70
     0
 43
2.0
 10
615174.527804711
 20
6498767.015479687
 10
615172.730311171
 20
6498766.138543556
 10
615172.7124252811
 20
6498766.129817537
 10
615170.975397801
 20
6498765.179277496
  0
LWPOLYLINE
  5
70C
330
A07
100
AcDbEntity
  8
Pipenode
  6
Continuous
 62
     7
100
AcDbPolyline
 90
        3
 70
     0
 43
2.0
 10
615174.527804711
 20
6498767.015479687
 10
615172.730311171
 20
6498766.138543556
 10
615171.626894301
 20
6498764.470469747
  0
LWPOLYLINE
  5
714
330
A07
100
AcDbEntity
  8
Pipenode
  6
Continuous
 62
     7
100
AcDbPolyline
 90
        4
 70
     0
 43
2.0
 10
615423.8706010242
 20
6498584.685318365
 10
615421.9554145043
 20
6498585.203838104
 10
615421.9508130843
 20
6498585.219018415
 10
615423.6132157743
 20
6498586.330961435
  0
LWPOLYLINE
  5
71C
330
A07
100
AcDbEntity
  8
Pipenode
  6
Continuous
 62
     7
100
AcDbPolyline
 90
        4
 70
     0
 43
2.0
 10
615423.6132157784
 20
6498586.330961439
 10
615421.9508130883
 20
6498585.219018419
 10
615421.9554144983
 20
6498585.203838109
 10
615423.8706010283
 20
6498584.685318368
  0
LWPOLYLINE
  5
724
330
A07
100
AcDbEntity
  8
Pipenode
  6
Continuous
 62
     7
100
AcDbPolyline
 90
        4
 70
     0
 43
2.0
 10
615434.8493688082
 20
6498503.197747951
 10
615434.0032058383
 20
6498501.385564672
 10
615433.8960179582
 20
6498501.156005952
 10
615433.1617434082
 20
6498499.571195061
  0
LWPOLYLINE
  5
72A
330
A07
100
AcDbEntity
  8
Pipenode
  6
Continuous
 62
     7
100
AcDbPolyline
 90
        3
 70
     0
 43
2.0
 10
615434.8493688082
 20
6498503.197747951
 10
615434.0032058383
 20
6498501.385564672
 10
615435.0506689582
 20
6498500.896472591
  0
LWPOLYLINE
  5
730
330
A07
100
AcDbEntity
  8
Pipenode
  6
Continuous
 62
     7
100
AcDbPolyline
 90
        3
 70
     0
 43
2.0
 10
615535.4250844027
 20
6498607.073695737
 10
615535.9200019527
 20
6498609.011492587
 10
615534.4325875127
 20
6498609.391381477
  0
LWPOLYLINE
  5
738
330
A07
100
AcDbEntity
  8
Pipenode
  6
Continuous
 62
     7
100
AcDbPolyline
 90
        4
 70
     0
 43
2.0
 10
615562.2707921768
 20
6498712.053537682
 10
615562.7011469469
 20
6498713.741168582
 10
615562.7651734068
 20
6498713.991471361
 10
615563.2608072768
 20
6498715.929085121
  0
LWPOLYLINE
  5
740
330
A07
100
AcDbEntity
  8
Pipenode
  6
Continuous
 62
     7
100
AcDbPolyline
 90
        4
 70
     0
 43
2.0
 10
615562.2707921768
 20
6498712.053537682
 10
615562.7011469469
 20
6498713.741168582
 10
615562.7651734068
 20
6498713.991471361
 10
615561.6301986169
 20
6498714.281793391
  0
LWPOLYLINE
  5
748
330
A07
100
AcDbEntity
  8
Pipenode
  6
Continuous
 62
     7
100
AcDbPolyline
 90
        4
 70
     0
 43
2.0
 10
615291.7681124284
 20
6498735.407860287
 10
615291.6449769484
 20
6498736.972405298
 10
615291.3201221484
 20
6498737.255071597
 10
615289.6443582184
 20
6498738.346774437
  0
TEXT
  5
74A
330
A07
100
AcDbEntity
  8
Outdoorcabinet
100
AcDbText
 10
615483.2683452237
 20
6498553.623572732
 30
0.0
 40
8.328785844050678
  1
C2007
  7
BOLD
 11
615483.2683452237
 21
6498561.952358576
 31
0.0
100
AcDbText
 73
     3
  0
VIEWPORT
  5
A48
330
A46
100
AcDbEntity
 67
     1
  8
0
  6
ByBlock
100
AcDbViewport
 10
128.5
 20
97.5
 30
0.0
 40
314.226
 41
222.18
 68
     1
 69
     1
 12
128.5
 22
97.5
 13
0.0
 23
0.0
 14
10.0
 24
10.0
 15
10.0
 25
10.0
 16
0.0
 26
0.0
 36
1.0
 17
0.0
 27
0.0
 37
0.0
 42
50.0
 43
0.0
 44
0.0
 45
222.18
 50
0.0
 51
0.0
 72
   100
 90
   557152
  1

281
     0
 71
     1
 74
     0
110
0.0
120
0.0
130
0.0
111
1.0
121
0.0
131
0.0
112
0.0
122
1.0
132
0.0
 79
     0
146
0.0
170
     0
 61
     5
348
A17
292
     1
282
     1
141
0.0
142
0.0
 63
   256
361
A49
  0
ENDSEC
  0
SECTION
  2
OBJECTS
  0
DICTIONARY
  5
9F5
330
0
100
AcDbDictionary
281
     1
  3
ACAD_DETAILVIEWSTYLE
350
A66
  3
ACAD_GROUP
350
9F6
  3
ACAD_LAYOUT
350
A02
  3
ACAD_MATERIAL
350
A2B
  3
ACAD_MLEADERSTYLE
350
A43
  3
ACAD_MLINESTYLE
350
9FF
  3
ACAD_PLOTSETTINGS
350
A01
  3
ACAD_PLOTSTYLENAME
350
9F7
  3
ACAD_SCALELIST
350
A2F
  3
ACAD_SECTIONVIEWSTYLE
350
A67
  3
ACAD_TABLESTYLE
350
A41
  3
ACAD_VISUALSTYLE
350
A12
  3
ACDB_RECOMPOSE_DATA
350
A62
  3
AcDbVariableDictionary
350
A5E
  3
CADS
350
9E4
  3
CadsVariableDictionary
350
A58
  0
SUN
  5
A45
330
A11
100
AcDbSun
 90
        1
290
     0
 63
     7
421
 16777215
 40
1.0
291
     1
 91
  2455826
 92
 54000000
292
     0
 70
     2
 71
   256
280
     1
  0
SUN
  5
A49
330
A48
100
AcDbSun
 90
        1
290
     0
 63
     7
421
 16777215
 40
1.0
291
     1
 91
  2455826
 92
 54000000
292
     0
 70
     2
 71
   256
280
     1
  0
DICTIONARY
  5
A66
102
{ACAD_REACTORS
330
9F5
102
}
330
9F5
100
AcDbDictionary
281
     1
  0
DICTIONARY
  5
9F6
102
{ACAD_REACTORS
330
9F5
102
}
330
9F5
100
AcDbDictionary
281
     1
  0
DICTIONARY
  5
A02
102
{ACAD_REACTORS
330
9F5
102
}
330
9F5
100
AcDbDictionary
281
     1
  3
Layout1
350
A47
  3
Model
350
A0A
  0
DICTIONARY
  5
A2B
102
{ACAD_REACTORS
330
9F5
102
}
330
9F5
100
AcDbDictionary
281
     1
  3
ByBlock
350
A2D
  3
ByLayer
350
A2C
  3
Global
350
A2E
  0
DICTIONARY
  5
A43
102
{ACAD_REACTORS
330
9F5
102
}
330
9F5
100
AcDbDictionary
281
     1
  3
Standard
350
A44
  0
DICTIONARY
  5
9FF
102
{ACAD_REACTORS
330
9F5
102
}
330
9F5
100
AcDbDictionary
281
     1
  3
Standard
350
A00
  0
DICTIONARY
  5
A01
102
{ACAD_REACTORS
330
9F5
102
}
330
9F5
100
AcDbDictionary
281
     1
  0
ACDBDICTIONARYWDFLT
  5
9F7
102
{ACAD_REACTORS
330
9F5
102
}
330
9F5
100
AcDbDictionary
281
     1
  3
Normal
350
9F8
100
AcDbDictionaryWithDefault
340
9F8
  0
DICTIONARY
  5
A2F
102
{ACAD_REACTORS
330
9F5
102
}
330
9F5
100
AcDbDictionary
281
     1
  3
A0
350
A30
  3
A1
350
A31
  3
A2
350
A32
  3
A3
350
A33
  3
A4
350
A34
  3
A5
350
A35
  3
A6
350
A36
  3
A7
350
A37
  3
A8
350
A38
  3
A9
350
A39
  3
B0
350
A3A
  3
B1
350
A3B
  3
B2
350
A3C
  3
B3
350
A3D
  3
B4
350
A3E
  3
B5
350
A3F
  3
B6
350
A40
  0
DICTIONARY
  5
A67
102
{ACAD_REACTORS
330
9F5
102
}
330
9F5
100
AcDbDictionary
281
     1
  0
DICTIONARY
  5
A41
102
{ACAD_REACTORS
330
9F5
102
}
330
9F5
100
AcDbDictionary
281
     1
  3
Standard
350
A42
  0
DICTIONARY
  5
A12
102
{ACAD_REACTORS
330
9F5
102
}
330
9F5
100
AcDbDictionary
281
     1
  3
2dWireframe
350
A17
  3
Basic
350
A1A
  3
Brighten
350
A1E
  3
ColorChange
350
A22
  3
Conceptual
350
A1C
  3
Dim
350
A1D
  3
EdgeColorOff
350
A25
  3
Facepattern
350
A21
  3
Flat
350
A13
  3
FlatWithEdges
350
A14
  3
Gouraud
350
A15
  3
GouraudWithEdges
350
A16
  3
Hidden
350
A19
  3
JitterOff
350
A23
  3
Linepattern
350
A20
  3
OverhangOff
350
A24
  3
Realistic
350
A1B
  3
Shaded
350
A2A
  3
Shaded with edges
350
A29
  3
Shades of Gray
350
A26
  3
Sketchy
350
A27
  3
Thicken
350
A1F
  3
Wireframe
350
A18
  3
X-Ray
350
A28
  0
XRECORD
  5
A62
102
{ACAD_REACTORS
330
9F5
102
}
330
9F5
100
AcDbXrecord
280
     1
 90
        1
330
A42
  0
DICTIONARY
  5
A5E
102
{ACAD_REACTORS
330
9F5
102
}
330
9F5
100
AcDbDictionary
281
     1
  3
CANNOSCALE
350
A5F
  3
CENTEREXE
350
A68
  3
CENTERLTYPEFILE
350
A69
  3
CMLEADERSTYLE
350
A64
  3
CTABLESTYLE
350
A63
  3
XCLIPFRAME
350
A65
  0
DICTIONARY
  5
9E4
102
{ACAD_REACTORS
330
9F5
102
}
330
9F5
100
AcDbDictionary
281
     1
  3
CommonData
350
9E5
  0
DICTIONARY
  5
A58
102
{ACAD_REACTORS
330
9F5
102
}
330
9F5
100
AcDbDictionary
281
     1
  3
CadsVariable_DRWSCALE
350
A59
  3
CadsVariable_INSSCALE
350
A5A
  3
CadsVariable_LASTVERSION
350
A5C
  3
CadsVariable_LAYERCOLORS
350
A5D
  3
CadsVariable_SIEVE
350
A5B
  0
LAYOUT
  5
A47
102
{ACAD_REACTORS
330
A02
102
}
330
A02
100
AcDbPlotSettings
  1

  2
None
  4

  6

 40
0.0
 41
0.0
 42
0.0
 43
0.0
 44
0.0
 45
0.0
 46
0.0
 47
0.0
 48
0.0
 49
0.0
140
0.0
141
0.0
142
1.0
143
1.0
 70
   688
 72
     0
 73
     0
 74
     5
  7

 75
    16
 76
     0
 77
     2
 78
   300
147
1.0
148
0.0
149
0.0
100
AcDbLayout
  1
Layout1
 70
     0
 71
     1
 10
0.0
 20
0.0
 11
0.0
 21
0.0
 12
0.0
 22
0.0
 32
0.0
 14
1.000000000000000E+20
 24
1.000000000000000E+20
 34
1.000000000000000E+20
 15
-1.000000000000000E+20
 25
-1.000000000000000E+20
 35
-1.000000000000000E+20
146
0.0
 13
0.0
 23
0.0
 33
0.0
 16
1.0
 26
0.0
 36
0.0
 17
0.0
 27
1.0
 37
0.0
 76
     0
330
A46
331
A48
  0
LAYOUT
  5
A0A
102
{ACAD_REACTORS
330
A02
102
}
330
A02
100
AcDbPlotSettings
  1

  2
none_device
  4
Letter_(8.50_x_11.00_Inches)
  6

 40
6.35
 41
6.35
 42
6.35000508
 43
6.35000508
 44
215.9
 45
279.4
 46
0.0
 47
0.0
 48
0.0
 49
0.0
140
0.0
141
0.0
142
1.0
143
1.0
 70
  1712
 72
     1
 73
     0
 74
     0
  7

 75
     0
 76
     0
 77
     2
 78
   300
147
1.0
148
0.0
149
0.0
100
AcDbLayout
  1
Model
 70
     1
 71
     0
 10
614993.0743292925
 20
6498370.267503155
 11
615719.9552325223
 21
6498931.127941893
 12
0.0
 22
0.0
 32
0.0
 14
614992.8793735228
 24
6498370.206631226
 34
0.0
 15
615720.0285766346
 25
6498931.375982522
 35
55.78800000000047
146
0.0
 13
0.0
 23
0.0
 33
0.0
 16
1.0
 26
0.0
 36
0.0
 17
0.0
 27
1.0
 37
0.0
 76
     0
330
A07
331
A11
  0
MATERIAL
  5
A2D
102
{ACAD_REACTORS
330
A2B
102
}
330
A2B
100
AcDbMaterial
  1
ByBlock
 72
     1
 94
      127
  0
MATERIAL
  5
A2C
102
{ACAD_REACTORS
330
A2B
102
}
330
A2B
100
AcDbMaterial
  1
ByLayer
 72
     1
 94
      127
  0
MATERIAL
  5
A2E
102
{ACAD_REACTORS
330
A2B
102
}
330
A2B
100
AcDbMaterial
  1
Global
 72
     1
 94
      127
  0
MLEADERSTYLE
  5
A44
102
{ACAD_REACTORS
330
A43
102
}
330
A43
100
AcDbMLeaderStyle
179
     2
170
     2
171
     1
172
     0
 90
        2
 40
0.0
 41
0.0
173
     1
 91
-1056964608
340
9FC
 92
       -2
290
     1
 42
2.0
291
     1
 43
8.0
  3
Standard
341
0
 44
4.0
300

342
9FA
174
     1
178
     6
175
     1
176
     0
 93
-1056964608
 45
4.0
292
     0
297
     0
 46
4.0
343
0
 94
-1056964608
 47
1.0
 49
1.0
140
1.0
293
     1
141
0.0
294
     1
177
     0
142
1.0
295
     0
296
     0
143
3.75
271
     0
272
     9
273
     9
298
     0
  0
MLINESTYLE
  5
A00
102
{ACAD_REACTORS
330
9FF
102
}
330
9FF
100
AcDbMlineStyle
  2
Standard
 70
     0
  3

 62
   256
 51
90.0
 52
90.0
 71
     2
 49
0.5
 62
   256
  6
BYLAYER
 49
-0.5
 62
   256
  6
BYLAYER
  0
ACDBPLACEHOLDER
  5
9F8
102
{ACAD_REACTORS
330
9F7
102
}
330
9F7
  0
SCALE
  5
A30
102
{ACAD_REACTORS
330
A2F
102
}
330
A2F
100
AcDbScale
 70
     0
300
1:1
140
1.0
141
1.0
290
     1
  0
SCALE
  5
A31
102
{ACAD_REACTORS
330
A2F
102
}
330
A2F
100
AcDbScale
 70
     0
300
1:2
140
1.0
141
2.0
290
     0
  0
SCALE
  5
A32
102
{ACAD_REACTORS
330
A2F
102
}
330
A2F
100
AcDbScale
 70
     0
300
1:4
140
1.0
141
4.0
290
     0
  0
SCALE
  5
A33
102
{ACAD_REACTORS
330
A2F
102
}
330
A2F
100
AcDbScale
 70
     0
300
1:5
140
1.0
141
5.0
290
     0
  0
SCALE
  5
A34
102
{ACAD_REACTORS
330
A2F
102
}
330
A2F
100
AcDbScale
 70
     0
300
1:8
140
1.0
141
8.0
290
     0
  0
SCALE
  5
A35
102
{ACAD_REACTORS
330
A2F
102
}
330
A2F
100
AcDbScale
 70
     0
300
1:10
140
1.0
141
10.0
290
     0
  0
SCALE
  5
A36
102
{ACAD_REACTORS
330
A2F
102
}
330
A2F
100
AcDbScale
 70
     0
300
1:16
140
1.0
141
16.0
290
     0
  0
SCALE
  5
A37
102
{ACAD_REACTORS
330
A2F
102
}
330
A2F
100
AcDbScale
 70
     0
300
1:20
140
1.0
141
20.0
290
     0
  0
SCALE
  5
A38
102
{ACAD_REACTORS
330
A2F
102
}
330
A2F
100
AcDbScale
 70
     0
300
1:30
140
1.0
141
30.0
290
     0
  0
SCALE
  5
A39
102
{ACAD_REACTORS
330
A2F
102
}
330
A2F
100
AcDbScale
 70
     0
300
1:40
140
1.0
141
40.0
290
     0
  0
SCALE
  5
A3A
102
{ACAD_REACTORS
330
A2F
102
}
330
A2F
100
AcDbScale
 70
     0
300
1:50
140
1.0
141
50.0
290
     0
  0
SCALE
  5
A3B
102
{ACAD_REACTORS
330
A2F
102
}
330
A2F
100
AcDbScale
 70
     0
300
1:100
140
1.0
141
100.0
290
     0
  0
SCALE
  5
A3C
102
{ACAD_REACTORS
330
A2F
102
}
330
A2F
100
AcDbScale
 70
     0
300
2:1
140
2.0
141
1.0
290
     0
  0
SCALE
  5
A3D
102
{ACAD_REACTORS
330
A2F
102
}
330
A2F
100
AcDbScale
 70
     0
300
4:1
140
4.0
141
1.0
290
     0
  0
SCALE
  5
A3E
102
{ACAD_REACTORS
330
A2F
102
}
330
A2F
100
AcDbScale
 70
     0
300
8:1
140
8.0
141
1.0
290
     0
  0
SCALE
  5
A3F
102
{ACAD_REACTORS
330
A2F
102
}
330
A2F
100
AcDbScale
 70
     0
300
10:1
140
10.0
141
1.0
290
     0
  0
SCALE
  5
A40
102
{ACAD_REACTORS
330
A2F
102
}
330
A2F
100
AcDbScale
 70
     0
300
100:1
140
100.0
141
1.0
290
     0
  0
TABLESTYLE
  5
A42
102
{ACAD_REACTORS
330
A41
102
}
102
{ACAD_XDICTIONARY
360
A60
102
}
330
A41
100
AcDbTableStyle
  3
Standard
 70
     0
 71
     0
 40
0.06
 41
0.06
280
     0
281
     0
  7
Standard
140
4.5
170
     2
 62
     0
 63
   257
283
     0
 90
        4
 91
        0
  1

274
    -2
284
     1
 64
     0
275
    -2
285
     1
 65
     0
276
    -2
286
     1
 66
     0
277
    -2
287
     1
 67
     0
278
    -2
288
     1
 68
     0
279
    -2
289
     1
 69
     0
  7
Standard
140
6.0
170
     5
 62
     0
 63
   257
283
     0
 90
        4
 91
        0
  1

274
    -2
284
     1
 64
     0
275
    -2
285
     1
 65
     0
276
    -2
286
     1
 66
     0
277
    -2
287
     1
 67
     0
278
    -2
288
     1
 68
     0
279
    -2
289
     1
 69
     0
  7
Standard
140
4.5
170
     5
 62
     0
 63
   257
283
     0
 90
        4
 91
        0
  1

274
    -2
284
     1
 64
     0
275
    -2
285
     1
 65
     0
276
    -2
286
     1
 66
     0
277
    -2
287
     1
 67
     0
278
    -2
288
     1
 68
     0
279
    -2
289
     1
 69
     0
  0
VISUALSTYLE
  5
A17
102
{ACAD_REACTORS
330
A12
102
}
330
A12
100
AcDbVisualStyle
  2
2dWireframe
 70
     4
177
     3
291
     0
 70
    58
 90
        0
176
     1
 90
        2
176
     1
 90
        0
176
     1
 90
        0
176
     1
 40
0.6
176
     1
 40
30.0
176
     1
 62
     7
420
 16777215
176
     1
 90
        1
176
     1
 90
        4
176
     1
 62
     7
176
     1
 62
   257
176
     1
 90
        1
176
     1
 90
        1
176
     1
 40
1.0
176
     1
 90
        0
176
     1
 62
   257
176
     1
 40
1.0
176
     1
 90
        1
176
     1
 90
        6
176
     1
 90
        2
176
     1
 62
     7
176
     1
 90
        5
176
     1
 90
        0
176
     1
 90
        0
176
     1
290
     0
176
     1
 90
        1
176
     1
 40
0.0
176
     1
 90
        0
176
     1
290
     1
176
     1
290
     1
176
     1
290
     0
176
     1
290
     0
176
     1
290
     0
176
     1
290
     0
176
     1
290
     0
176
     1
290
     0
176
     1
290
     0
176
     1
 90
       50
176
     1
 40
0.0
176
     1
 40
1.0
176
     1
 90
        0
176
     1
 62
    18
420
        0
176
     1
 90
       50
176
     1
 90
        3
176
     1
 62
     5
420
      255
176
     1
290
     0
176
     1
 90
       50
176
     1
 90
       50
176
     1
 90
       50
176
     1
290
     0
176
     1
 90
       50
176
     1
 62
   256
176
     0
 40
1.0
176
     0
 90
        2
176
     1
  1
strokes_ogs.tif
176
     1
290
     0
176
     1
 40
1.0
176
     1
 40
1.0
176
     1
  0
VISUALSTYLE
  5
A1A
102
{ACAD_REACTORS
330
A12
102
}
330
A12
100
AcDbVisualStyle
  2
Basic
 70
     7
177
     3
291
     1
 70
    58
 90
        1
176
     1
 90
        0
176
     1
 90
        1
176
     1
 90
        0
176
     1
 40
0.6
176
     1
 40
30.0
176
     1
 62
     7
420
 16777215
176
     1
 90
        0
176
     1
 90
        4
176
     1
 62
     7
176
     1
 62
   257
176
     1
 90
        1
176
     1
 90
        1
176
     1
 40
1.0
176
     1
 90
        8
176
     1
 62
     7
176
     1
 40
1.0
176
     1
 90
        1
176
     1
 90
        6
176
     1
 90
        2
176
     1
 62
     7
176
     1
 90
        5
176
     1
 90
        0
176
     1
 90
        0
176
     1
290
     0
176
     1
 90
        1
176
     1
 40
0.0
176
     1
 90
        0
176
     1
290
     0
176
     1
290
     1
176
     1
290
     1
176
     1
290
     0
176
     1
290
     0
176
     1
290
     0
176
     1
290
     0
176
     1
290
     0
176
     1
290
     0
176
     1
 90
       50
176
     1
 40
0.0
176
     1
 40
1.0
176
     1
 90
        0
176
     1
 62
    18
420
        0
176
     1
 90
       50
176
     1
 90
        3
176
     1
 62
     5
420
      255
176
     1
290
     0
176
     1
 90
       50
176
     1
 90
       50
176
     1
 90
       50
176
     1
290
     0
176
     1
 90
       50
176
     1
 62
   256
176
     0
 40
1.0
176
     0
 90
        2
176
     1
  1
strokes_ogs.tif
176
     1
290
     0
176
     1
 40
1.0
176
     1
 40
1.0
176
     1
  0
VISUALSTYLE
  5
A1E
102
{ACAD_REACTORS
330
A12
102
}
330
A12
100
AcDbVisualStyle
  2
Brighten
 70
    12
177
     3
291
     1
 70
    58
 90
        2
176
     1
 90
        2
176
     1
 90
        0
176
     1
 90
        0
176
     1
 40
0.6
176
     1
 40
30.0
176
     1
 62
     7
420
 16777215
176
     1
 90
        1
176
     1
 90
        4
176
     1
 62
     7
176
     1
 62
   257
176
     1
 90
        1
176
     1
 90
        1
176
     1
 40
1.0
176
     1
 90
        8
176
     1
 62
     7
176
     1
 40
1.0
176
     1
 90
        1
176
     1
 90
        6
176
     1
 90
        2
176
     1
 62
     7
176
     1
 90
        5
176
     1
 90
        0
176
     1
 90
        0
176
     1
290
     0
176
     1
 90
        1
176
     1
 40
50.0
176
     1
 90
        0
176
     1
290
     0
176
     1
290
     1
176
     1
290
     1
176
     1
290
     0
176
     1
290
     0
176
     1
290
     0
176
     1
290
     0
176
     1
290
     0
176
     1
290
     0
176
     1
 90
       50
176
     1
 40
0.0
176
     1
 40
1.0
176
     1
 90
        0
176
     1
 62
    18
420
        0
176
     1
 90
       50
176
     1
 90
        3
176
     1
 62
     5
420
      255
176
     1
290
     0
176
     1
 90
       50
176
     1
 90
       50
176
     1
 90
       50
176
     1
290
     0
176
     1
 90
       50
176
     1
 62
   256
176
     0
 40
1.0
176
     0
 90
        2
176
     1
  1
strokes_ogs.tif
176
     1
290
     0
176
     1
 40
1.0
176
     1
 40
1.0
176
     1
  0
VISUALSTYLE
  5
A22
102
{ACAD_REACTORS
330
A12
102
}
330
A12
100
AcDbVisualStyle
  2
ColorChange
 70
    16
177
     3
291
     1
 70
    58
 90
        2
176
     1
 90
        2
176
     1
 90
        3
176
     1
 90
        0
176
     1
 40
0.6
176
     1
 40
30.0
176
     1
 62
     8
420
  8421504
176
     1
 90
        1
176
     1
 90
        4
176
     1
 62
     7
176
     1
 62
   257
176
     1
 90
        1
176
     1
 90
        1
176
     1
 40
1.0
176
     1
 90
        8
176
     1
 62
     8
420
  8421504
176
     1
 40
1.0
176
     1
 90
        1
176
     1
 90
        6
176
     1
 90
        2
176
     1
 62
     7
176
     1
 90
        5
176
     1
 90
        0
176
     1
 90
        0
176
     1
290
     0
176
     1
 90
        1
176
     1
 40
0.0
176
     1
 90
        0
176
     1
290
     0
176
     1
290
     1
176
     1
290
     1
176
     1
290
     0
176
     1
290
     0
176
     1
290
     0
176
     1
290
     0
176
     1
290
     0
176
     1
290
     0
176
     1
 90
       50
176
     1
 40
0.0
176
     1
 40
1.0
176
     1
 90
        0
176
     1
 62
    18
420
        0
176
     1
 90
       50
176
     1
 90
        3
176
     1
 62
     5
420
      255
176
     1
290
     0
176
     1
 90
       50
176
     1
 90
       50
176
     1
 90
       50
176
     1
290
     0
176
     1
 90
       50
176
     1
 62
   256
176
     0
 40
1.0
176
     0
 90
        2
176
     1
  1
strokes_ogs.tif
176
     1
290
     0
176
     1
 40
1.0
176
     1
 40
1.0
176
     1
  0
VISUALSTYLE
  5
A1C
102
{ACAD_REACTORS
330
A12
102
}
330
A12
100
AcDbVisualStyle
  2
Conceptual
 70
     9
177
     3
291
     0
 70
    58
 90
        3
176
     1
 90
        2
176
     1
 90
        0
176
     1
 90
        0
176
     1
 40
0.6
176
     1
 40
30.0
176
     1
 62
     7
420
 16777215
176
     1
 90
        2
176
     1
 90
        2
176
     1
 62
     7
176
     1
 62
   257
176
     1
 90
        1
176
     1
 90
        1
176
     1
 40
179.0
176
     1
 90
        8
176
     1
 62
     7
176
     1
 40
1.0
176
     1
 90
        1
176
     1
 90
        6
176
     1
 90
        2
176
     1
 62
     7
176
     1
 90
        3
176
     1
 90
        0
176
     1
 90
        0
176
     1
290
     0
176
     1
 90
        1
176
     1
 40
0.0
176
     1
 90
        0
176
     1
290
     0
176
     1
290
     1
176
     1
290
     1
176
     1
290
     0
176
     1
290
     0
176
     1
290
     0
176
     1
290
     0
176
     1
290
     0
176
     1
290
     0
176
     1
 90
       50
176
     1
 40
0.0
176
     1
 40
1.0
176
     1
 90
        0
176
     1
 62
    18
420
        0
176
     1
 90
       50
176
     1
 90
        3
176
     1
 62
     5
420
      255
176
     1
290
     0
176
     1
 90
       50
176
     1
 90
       50
176
     1
 90
       50
176
     1
290
     0
176
     1
 90
       50
176
     1
 62
   256
176
     0
 40
1.0
176
     0
 90
        2
176
     1
  1
strokes_ogs.tif
176
     1
290
     0
176
     1
 40
1.0
176
     1
 40
1.0
176
     1
  0
VISUALSTYLE
  5
A1D
102
{ACAD_REACTORS
330
A12
102
}
330
A12
100
AcDbVisualStyle
  2
Dim
 70
    11
177
     3
291
     1
 70
    58
 90
        2
176
     1
 90
        2
176
     1
 90
        0
176
     1
 90
        0
176
     1
 40
0.6
176
     1
 40
30.0
176
     1
 62
     7
420
 16777215
176
     1
 90
        1
176
     1
 90
        4
176
     1
 62
     7
176
     1
 62
   257
176
     1
 90
        1
176
     1
 90
        1
176
     1
 40
1.0
176
     1
 90
        8
176
     1
 62
     7
176
     1
 40
1.0
176
     1
 90
        1
176
     1
 90
        6
176
     1
 90
        2
176
     1
 62
     7
176
     1
 90
        5
176
     1
 90
        0
176
     1
 90
        0
176
     1
290
     0
176
     1
 90
        1
176
     1
 40
-50.0
176
     1
 90
        0
176
     1
290
     0
176
     1
290
     1
176
     1
290
     1
176
     1
290
     0
176
     1
290
     0
176
     1
290
     0
176
     1
290
     0
176
     1
290
     0
176
     1
290
     0
176
     1
 90
       50
176
     1
 40
0.0
176
     1
 40
1.0
176
     1
 90
        0
176
     1
 62
    18
420
        0
176
     1
 90
       50
176
     1
 90
        3
176
     1
 62
     5
420
      255
176
     1
290
     0
176
     1
 90
       50
176
     1
 90
       50
176
     1
 90
       50
176
     1
290
     0
176
     1
 90
       50
176
     1
 62
   256
176
     0
 40
1.0
176
     0
 90
        2
176
     1
  1
strokes_ogs.tif
176
     1
290
     0
176
     1
 40
1.0
176
     1
 40
1.0
176
     1
  0
VISUALSTYLE
  5
A25
102
{ACAD_REACTORS
330
A12
102
}
330
A12
100
AcDbVisualStyle
  2
EdgeColorOff
 70
    22
177
     3
291
     1
 70
    58
 90
        2
176
     0
 90
        2
176
     0
 90
        0
176
     0
 90
        0
176
     0
 40
0.6
176
     0
 40
30.0
176
     0
 62
     7
420
 16777215
176
     0
 90
        1
176
     0
 90
        4
176
     0
 62
     7
176
     0
 62
   257
176
     0
 90
        1
176
     0
 90
        1
176
     0
 40
1.0
176
     0
 90
        8
176
     2
 62
     7
176
     0
 40
1.0
176
     0
 90
        1
176
     0
 90
        6
176
     0
 90
        2
176
     0
 62
     7
176
     0
 90
        5
176
     0
 90
        0
176
     0
 90
        0
176
     0
290
     0
176
     0
 90
        1
176
     0
 40
0.0
176
     0
 90
        0
176
     0
290
     0
176
     0
290
     1
176
     0
290
     1
176
     0
290
     0
176
     0
290
     0
176
     0
290
     0
176
     0
290
     0
176
     0
290
     0
176
     0
290
     0
176
     0
 90
       50
176
     0
 40
0.0
176
     0
 40
1.0
176
     0
 90
        0
176
     0
 62
    18
420
        0
176
     0
 90
       50
176
     0
 90
        3
176
     0
 62
     5
420
      255
176
     0
290
     0
176
     0
 90
       50
176
     0
 90
       50
176
     0
 90
       50
176
     0
290
     0
176
     0
 90
       50
176
     0
 62
   256
176
     0
 40
1.0
176
     0
 90
        2
176
     0
  1
strokes_ogs.tif
176
     0
290
     0
176
     0
 40
1.0
176
     0
 40
1.0
176
     0
  0
VISUALSTYLE
  5
A21
102
{ACAD_REACTORS
330
A12
102
}
330
A12
100
AcDbVisualStyle
  2
Facepattern
 70
    15
177
     3
291
     1
 70
    58
 90
        2
176
     1
 90
        2
176
     1
 90
        0
176
     1
 90
        0
176
     1
 40
0.6
176
     1
 40
30.0
176
     1
 62
     7
420
 16777215
176
     1
 90
        1
176
     1
 90
        4
176
     1
 62
     7
176
     1
 62
   257
176
     1
 90
        1
176
     1
 90
        1
176
     1
 40
1.0
176
     1
 90
        8
176
     1
 62
     7
176
     1
 40
1.0
176
     1
 90
        1
176
     1
 90
        6
176
     1
 90
        2
176
     1
 62
     7
176
     1
 90
        5
176
     1
 90
        0
176
     1
 90
        0
176
     1
290
     0
176
     1
 90
        1
176
     1
 40
0.0
176
     1
 90
        0
176
     1
290
     0
176
     1
290
     1
176
     1
290
     1
176
     1
290
     0
176
     1
290
     0
176
     1
290
     0
176
     1
290
     0
176
     1
290
     0
176
     1
290
     0
176
     1
 90
       50
176
     1
 40
0.0
176
     1
 40
1.0
176
     1
 90
        0
176
     1
 62
    18
420
        0
176
     1
 90
       50
176
     1
 90
        3
176
     1
 62
     5
420
      255
176
     1
290
     0
176
     1
 90
       50
176
     1
 90
       50
176
     1
 90
       50
176
     1
290
     0
176
     1
 90
       50
176
     1
 62
   256
176
     0
 40
1.0
176
     0
 90
        2
176
     1
  1
strokes_ogs.tif
176
     1
290
     0
176
     1
 40
1.0
176
     1
 40
1.0
176
     1
  0
VISUALSTYLE
  5
A13
102
{ACAD_REACTORS
330
A12
102
}
330
A12
100
AcDbVisualStyle
  2
Flat
 70
     0
177
     3
291
     1
 70
    58
 90
        2
176
     1
 90
        1
176
     1
 90
        1
176
     1
 90
        2
176
     1
 40
0.6
176
     1
 40
30.0
176
     1
 62
     7
420
 16777215
176
     1
 90
        0
176
     1
 90
        0
176
     1
 62
     7
176
     1
 62
   257
176
     1
 90
        1
176
     1
 90
        1
176
     1
 40
1.0
176
     1
 90
        8
176
     1
 62
     7
176
     1
 40
1.0
176
     1
 90
        1
176
     1
 90
        6
176
     1
 90
        2
176
     1
 62
     7
176
     1
 90
        5
176
     1
 90
        0
176
     1
 90
        0
176
     1
290
     0
176
     1
 90
       13
176
     1
 40
0.0
176
     1
 90
        0
176
     1
290
     0
176
     1
290
     1
176
     1
290
     1
176
     1
290
     0
176
     1
290
     0
176
     1
290
     0
176
     1
290
     0
176
     1
290
     0
176
     1
290
     0
176
     1
 90
       50
176
     1
 40
0.0
176
     1
 40
1.0
176
     1
 90
        0
176
     1
 62
    18
420
        0
176
     1
 90
       50
176
     1
 90
        3
176
     1
 62
     5
420
      255
176
     1
290
     0
176
     1
 90
       50
176
     1
 90
       50
176
     1
 90
       50
176
     1
290
     0
176
     1
 90
       50
176
     1
 62
   256
176
     0
 40
1.0
176
     0
 90
        2
176
     1
  1
strokes_ogs.tif
176
     1
290
     0
176
     1
 40
1.0
176
     1
 40
1.0
176
     1
  0
VISUALSTYLE
  5
A14
102
{ACAD_REACTORS
330
A12
102
}
330
A12
100
AcDbVisualStyle
  2
FlatWithEdges
 70
     1
177
     3
291
     1
 70
    58
 90
        2
176
     1
 90
        1
176
     1
 90
        1
176
     1
 90
        2
176
     1
 40
0.6
176
     1
 40
30.0
176
     1
 62
     7
420
 16777215
176
     1
 90
        1
176
     1
 90
        0
176
     1
 62
     7
176
     1
 62
   257
176
     1
 90
        1
176
     1
 90
        1
176
     1
 40
1.0
176
     1
 90
        0
176
     1
 62
   257
176
     1
 40
1.0
176
     1
 90
        1
176
     1
 90
        6
176
     1
 90
        2
176
     1
 62
     7
176
     1
 90
        5
176
     1
 90
        0
176
     1
 90
        0
176
     1
290
     0
176
     1
 90
       13
176
     1
 40
0.0
176
     1
 90
        0
176
     1
290
     0
176
     1
290
     1
176
     1
290
     1
176
     1
290
     0
176
     1
290
     0
176
     1
290
     0
176
     1
290
     0
176
     1
290
     0
176
     1
290
     0
176
     1
 90
       50
176
     1
 40
0.0
176
     1
 40
1.0
176
     1
 90
        0
176
     1
 62
    18
420
        0
176
     1
 90
       50
176
     1
 90
        3
176
     1
 62
     5
420
      255
176
     1
290
     0
176
     1
 90
       50
176
     1
 90
       50
176
     1
 90
       50
176
     1
290
     0
176
     1
 90
       50
176
     1
 62
   256
176
     0
 40
1.0
176
     0
 90
        2
176
     1
  1
strokes_ogs.tif
176
     1
290
     0
176
     1
 40
1.0
176
     1
 40
1.0
176
     1
  0
VISUALSTYLE
  5
A15
102
{ACAD_REACTORS
330
A12
102
}
330
A12
100
AcDbVisualStyle
  2
Gouraud
 70
     2
177
     3
291
     1
 70
    58
 90
        2
176
     1
 90
        2
176
     1
 90
        1
176
     1
 90
        2
176
     1
 40
0.6
176
     1
 40
30.0
176
     1
 62
     7
420
 16777215
176
     1
 90
        0
176
     1
 90
        0
176
     1
 62
     7
176
     1
 62
   257
176
     1
 90
        1
176
     1
 90
        1
176
     1
 40
1.0
176
     1
 90
        0
176
     1
 62
     7
176
     1
 40
1.0
176
     1
 90
        1
176
     1
 90
        6
176
     1
 90
        2
176
     1
 62
     7
176
     1
 90
        5
176
     1
 90
        0
176
     1
 90
        0
176
     1
290
     0
176
     1
 90
       13
176
     1
 40
0.0
176
     1
 90
        0
176
     1
290
     0
176
     1
290
     1
176
     1
290
     1
176
     1
290
     0
176
     1
290
     0
176
     1
290
     0
176
     1
290
     0
176
     1
290
     0
176
     1
290
     0
176
     1
 90
       50
176
     1
 40
0.0
176
     1
 40
1.0
176
     1
 90
        0
176
     1
 62
    18
420
        0
176
     1
 90
       50
176
     1
 90
        3
176
     1
 62
     5
420
      255
176
     1
290
     0
176
     1
 90
       50
176
     1
 90
       50
176
     1
 90
       50
176
     1
290
     0
176
     1
 90
       50
176
     1
 62
   256
176
     0
 40
1.0
176
     0
 90
        2
176
     1
  1
strokes_ogs.tif
176
     1
290
     0
176
     1
 40
1.0
176
     1
 40
1.0
176
     1
  0
VISUALSTYLE
  5
A16
102
{ACAD_REACTORS
330
A12
102
}
330
A12
100
AcDbVisualStyle
  2
GouraudWithEdges
 70
     3
177
     3
291
     1
 70
    58
 90
        2
176
     1
 90
        2
176
     1
 90
        1
176
     1
 90
        2
176
     1
 40
0.6
176
     1
 40
30.0
176
     1
 62
     7
420
 16777215
176
     1
 90
        1
176
     1
 90
        0
176
     1
 62
     7
176
     1
 62
   257
176
     1
 90
        1
176
     1
 90
        1
176
     1
 40
1.0
176
     1
 90
        0
176
     1
 62
   257
176
     1
 40
1.0
176
     1
 90
        1
176
     1
 90
        6
176
     1
 90
        2
176
     1
 62
     7
176
     1
 90
        5
176
     1
 90
        0
176
     1
 90
        0
176
     1
290
     0
176
     1
 90
       13
176
     1
 40
0.0
176
     1
 90
        0
176
     1
290
     0
176
     1
290
     1
176
     1
290
     1
176
     1
290
     0
176
     1
290
     0
176
     1
290
     0
176
     1
290
     0
176
     1
290
     0
176
     1
290
     0
176
     1
 90
       50
176
     1
 40
0.0
176
     1
 40
1.0
176
     1
 90
        0
176
     1
 62
    18
420
        0
176
     1
 90
       50
176
     1
 90
        3
176
     1
 62
     5
420
      255
176
     1
290
     0
176
     1
 90
       50
176
     1
 90
       50
176
     1
 90
       50
176
     1
290
     0
176
     1
 90
       50
176
     1
 62
   256
176
     0
 40
1.0
176
     0
 90
        2
176
     1
  1
strokes_ogs.tif
176
     1
290
     0
176
     1
 40
1.0
176
     1
 40
1.0
176
     1
  0
VISUALSTYLE
  5
A19
102
{ACAD_REACTORS
330
A12
102
}
330
A12
100
AcDbVisualStyle
  2
Hidden
 70
     6
177
     3
291
     0
 70
    58
 90
        1
176
     1
 90
        2
176
     1
 90
        2
176
     1
 90
        0
176
     1
 40
0.6
176
     1
 40
30.0
176
     1
 62
     7
420
 16777215
176
     1
 90
        2
176
     1
 90
        2
176
     1
 62
     7
176
     1
 62
   257
176
     1
 90
        2
176
     1
 90
        1
176
     1
 40
40.0
176
     1
 90
        0
176
     1
 62
   257
176
     1
 40
1.0
176
     1
 90
        1
176
     1
 90
        6
176
     1
 90
        2
176
     1
 62
     7
176
     1
 90
        3
176
     1
 90
        0
176
     1
 90
        0
176
     1
290
     0
176
     1
 90
        1
176
     1
 40
0.0
176
     1
 90
        0
176
     1
290
     0
176
     1
290
     1
176
     1
290
     1
176
     1
290
     0
176
     1
290
     0
176
     1
290
     0
176
     1
290
     0
176
     1
290
     0
176
     1
290
     0
176
     1
 90
       50
176
     1
 40
0.0
176
     1
 40
1.0
176
     1
 90
        0
176
     1
 62
    18
420
        0
176
     1
 90
       50
176
     1
 90
        3
176
     1
 62
     5
420
      255
176
     1
290
     0
176
     1
 90
       50
176
     1
 90
       50
176
     1
 90
       50
176
     1
290
     0
176
     1
 90
       50
176
     1
 62
   256
176
     0
 40
1.0
176
     0
 90
        2
176
     1
  1
strokes_ogs.tif
176
     1
290
     0
176
     1
 40
1.0
176
     1
 40
1.0
176
     1
  0
VISUALSTYLE
  5
A23
102
{ACAD_REACTORS
330
A12
102
}
330
A12
100
AcDbVisualStyle
  2
JitterOff
 70
    20
177
     3
291
     1
 70
    58
 90
        2
176
     0
 90
        2
176
     0
 90
        0
176
     0
 90
        0
176
     0
 40
0.6
176
     0
 40
30.0
176
     0
 62
     7
420
 16777215
176
     0
 90
        1
176
     0
 90
        4
176
     0
 62
     7
176
     0
 62
   257
176
     0
 90
        1
176
     0
 90
        1
176
     0
 40
1.0
176
     0
 90
       10
176
     2
 62
     7
176
     0
 40
1.0
176
     0
 90
        1
176
     0
 90
        6
176
     0
 90
        2
176
     0
 62
     7
176
     0
 90
        5
176
     0
 90
        0
176
     0
 90
        0
176
     0
290
     0
176
     0
 90
        1
176
     0
 40
0.0
176
     0
 90
        0
176
     0
290
     0
176
     0
290
     1
176
     0
290
     1
176
     0
290
     0
176
     0
290
     0
176
     0
290
     0
176
     0
290
     0
176
     0
290
     0
176
     0
290
     0
176
     0
 90
       50
176
     0
 40
0.0
176
     0
 40
1.0
176
     0
 90
        0
176
     0
 62
    18
420
        0
176
     0
 90
       50
176
     0
 90
        3
176
     0
 62
     5
420
      255
176
     0
290
     0
176
     0
 90
       50
176
     0
 90
       50
176
     0
 90
       50
176
     0
290
     0
176
     0
 90
       50
176
     0
 62
   256
176
     0
 40
1.0
176
     0
 90
        2
176
     0
  1
strokes_ogs.tif
176
     0
290
     0
176
     0
 40
1.0
176
     0
 40
1.0
176
     0
  0
VISUALSTYLE
  5
A20
102
{ACAD_REACTORS
330
A12
102
}
330
A12
100
AcDbVisualStyle
  2
Linepattern
 70
    14
177
     3
291
     1
 70
    58
 90
        2
176
     1
 90
        2
176
     1
 90
        0
176
     1
 90
        0
176
     1
 40
0.6
176
     1
 40
30.0
176
     1
 62
     7
420
 16777215
176
     1
 90
        1
176
     1
 90
        4
176
     1
 62
     7
176
     1
 62
   257
176
     1
 90
        7
176
     1
 90
        7
176
     1
 40
1.0
176
     1
 90
        8
176
     1
 62
     7
176
     1
 40
1.0
176
     1
 90
        1
176
     1
 90
        6
176
     1
 90
        2
176
     1
 62
     7
176
     1
 90
        5
176
     1
 90
        0
176
     1
 90
        0
176
     1
290
     0
176
     1
 90
        1
176
     1
 40
0.0
176
     1
 90
        0
176
     1
290
     0
176
     1
290
     1
176
     1
290
     1
176
     1
290
     0
176
     1
290
     0
176
     1
290
     0
176
     1
290
     0
176
     1
290
     0
176
     1
290
     0
176
     1
 90
       50
176
     1
 40
0.0
176
     1
 40
1.0
176
     1
 90
        0
176
     1
 62
    18
420
        0
176
     1
 90
       50
176
     1
 90
        3
176
     1
 62
     5
420
      255
176
     1
290
     0
176
     1
 90
       50
176
     1
 90
       50
176
     1
 90
       50
176
     1
290
     0
176
     1
 90
       50
176
     1
 62
   256
176
     0
 40
1.0
176
     0
 90
        2
176
     1
  1
strokes_ogs.tif
176
     1
290
     0
176
     1
 40
1.0
176
     1
 40
1.0
176
     1
  0
VISUALSTYLE
  5
A24
102
{ACAD_REACTORS
330
A12
102
}
330
A12
100
AcDbVisualStyle
  2
OverhangOff
 70
    21
177
     3
291
     1
 70
    58
 90
        2
176
     0
 90
        2
176
     0
 90
        0
176
     0
 90
        0
176
     0
 40
0.6
176
     0
 40
30.0
176
     0
 62
     7
420
 16777215
176
     0
 90
        1
176
     0
 90
        4
176
     0
 62
     7
176
     0
 62
   257
176
     0
 90
        1
176
     0
 90
        1
176
     0
 40
1.0
176
     0
 90
        9
176
     2
 62
     7
176
     0
 40
1.0
176
     0
 90
        1
176
     0
 90
        6
176
     0
 90
        2
176
     0
 62
     7
176
     0
 90
        5
176
     0
 90
        0
176
     0
 90
        0
176
     0
290
     0
176
     0
 90
        1
176
     0
 40
0.0
176
     0
 90
        0
176
     0
290
     0
176
     0
290
     1
176
     0
290
     1
176
     0
290
     0
176
     0
290
     0
176
     0
290
     0
176
     0
290
     0
176
     0
290
     0
176
     0
290
     0
176
     0
 90
       50
176
     0
 40
0.0
176
     0
 40
1.0
176
     0
 90
        0
176
     0
 62
    18
420
        0
176
     0
 90
       50
176
     0
 90
        3
176
     0
 62
     5
420
      255
176
     0
290
     0
176
     0
 90
       50
176
     0
 90
       50
176
     0
 90
       50
176
     0
290
     0
176
     0
 90
       50
176
     0
 62
   256
176
     0
 40
1.0
176
     0
 90
        2
176
     0
  1
strokes_ogs.tif
176
     0
290
     0
176
     0
 40
1.0
176
     0
 40
1.0
176
     0
  0
VISUALSTYLE
  5
A1B
102
{ACAD_REACTORS
330
A12
102
}
330
A12
100
AcDbVisualStyle
  2
Realistic
 70
     8
177
     3
291
     0
 70
    58
 90
        2
176
     1
 90
        3
176
     1
 90
        0
176
     1
 90
        2
176
     1
 40
0.6
176
     1
 40
30.0
176
     1
 62
     7
420
 16777215
176
     1
 90
        0
176
     1
 90
        0
176
     1
 62
     7
176
     1
 62
   257
176
     1
 90
        1
176
     1
 90
        1
176
     1
 40
1.0
176
     1
 90
        8
176
     1
 62
   257
176
     1
 40
1.0
176
     1
 90
        1
176
     1
 90
        6
176
     1
 90
        2
176
     1
 62
     7
176
     1
 90
        3
176
     1
 90
        0
176
     1
 90
        0
176
     1
290
     0
176
     1
 90
       13
176
     1
 40
0.0
176
     1
 90
        0
176
     1
290
     0
176
     1
290
     1
176
     1
290
     1
176
     1
290
     0
176
     1
290
     0
176
     1
290
     0
176
     1
290
     0
176
     1
290
     0
176
     1
290
     0
176
     1
 90
       50
176
     1
 40
0.0
176
     1
 40
1.0
176
     1
 90
        0
176
     1
 62
    18
420
        0
176
     1
 90
       50
176
     1
 90
        3
176
     1
 62
     5
420
      255
176
     1
290
     0
176
     1
 90
       50
176
     1
 90
       50
176
     1
 90
       50
176
     1
290
     0
176
     1
 90
       50
176
     1
 62
   256
176
     0
 40
1.0
176
     0
 90
        2
176
     1
  1
strokes_ogs.tif
176
     1
290
     0
176
     1
 40
1.0
176
     1
 40
1.0
176
     1
  0
VISUALSTYLE
  5
A2A
102
{ACAD_REACTORS
330
A12
102
}
330
A12
100
AcDbVisualStyle
  2
Shaded
 70
    27
177
     3
291
     0
 70
    58
 90
        2
176
     1
 90
        2
176
     1
 90
        1
176
     1
 90
        2
176
     1
 40
0.6
176
     1
 40
30.0
176
     1
 62
     7
420
 16777215
176
     1
 90
        0
176
     1
 90
        4
176
     1
 62
     7
176
     1
 62
   257
176
     1
 90
        1
176
     1
 90
        1
176
     1
 40
1.0
176
     1
 90
        8
176
     1
 62
   257
176
     1
 40
1.0
176
     1
 90
        1
176
     1
 90
        6
176
     1
 90
        2
176
     1
 62
     8
420
  7895160
176
     1
 90
        3
176
     1
 90
        0
176
     1
 90
        0
176
     1
290
     0
176
     1
 90
        5
176
     1
 40
0.0
176
     1
 90
        0
176
     1
290
     0
176
     1
290
     1
176
     1
290
     1
176
     1
290
     0
176
     1
290
     0
176
     1
290
     0
176
     1
290
     0
176
     1
290
     0
176
     1
290
     0
176
     1
 90
       50
176
     1
 40
0.0
176
     1
 40
1.0
176
     1
 90
        0
176
     1
 62
    18
420
        0
176
     1
 90
       50
176
     1
 90
        3
176
     1
 62
     5
420
      255
176
     1
290
     0
176
     1
 90
       50
176
     1
 90
       50
176
     1
 90
       50
176
     1
290
     0
176
     1
 90
       50
176
     1
 62
   256
176
     0
 40
1.0
176
     0
 90
        2
176
     1
  1
strokes_ogs.tif
176
     1
290
     0
176
     1
 40
1.0
176
     1
 40
1.0
176
     1
  0
VISUALSTYLE
  5
A29
102
{ACAD_REACTORS
330
A12
102
}
330
A12
100
AcDbVisualStyle
  2
Shaded with edges
 70
    26
177
     3
291
     0
 70
    58
 90
        2
176
     1
 90
        2
176
     1
 90
        1
176
     1
 90
        2
176
     1
 40
0.6
176
     1
 40
30.0
176
     1
 62
     7
420
 16777215
176
     1
 90
        1
176
     1
 90
       10
176
     1
 62
     7
176
     1
 62
   257
176
     1
 90
        2
176
     1
 90
        1
176
     1
 40
1.0
176
     1
 90
        8
176
     1
 62
   257
176
     1
 40
1.0
176
     1
 90
        1
176
     1
 90
        6
176
     1
 90
        2
176
     1
 62
     7
176
     1
 90
        3
176
     1
 90
        0
176
     1
 90
        0
176
     1
290
     0
176
     1
 90
        5
176
     1
 40
0.0
176
     1
 90
        0
176
     1
290
     0
176
     1
290
     1
176
     1
290
     1
176
     1
290
     0
176
     1
290
     0
176
     1
290
     0
176
     1
290
     0
176
     1
290
     0
176
     1
290
     0
176
     1
 90
       50
176
     1
 40
0.0
176
     1
 40
1.0
176
     1
 90
        0
176
     1
 62
    18
420
        0
176
     1
 90
       50
176
     1
 90
        3
176
     1
 62
     5
420
      255
176
     1
290
     0
176
     1
 90
       50
176
     1
 90
       50
176
     1
 90
       50
176
     1
290
     0
176
     1
 90
       50
176
     1
 62
   256
176
     0
 40
1.0
176
     0
 90
        2
176
     1
  1
strokes_ogs.tif
176
     1
290
     0
176
     1
 40
1.0
176
     1
 40
1.0
176
     1
  0
VISUALSTYLE
  5
A26
102
{ACAD_REACTORS
330
A12
102
}
330
A12
100
AcDbVisualStyle
  2
Shades of Gray
 70
    23
177
     3
291
     0
 70
    58
 90
        2
176
     1
 90
        2
176
     1
 90
        3
176
     1
 90
        0
176
     1
 40
0.6
176
     1
 40
30.0
176
     1
 62
     7
420
 16777215
176
     1
 90
        2
176
     1
 90
        2
176
     1
 62
     7
176
     1
 62
     7
176
     1
 90
        1
176
     1
 90
        1
176
     1
 40
40.0
176
     1
 90
        8
176
     1
 62
     7
176
     1
 40
1.0
176
     1
 90
        1
176
     1
 90
        6
176
     1
 90
        2
176
     1
 62
     7
176
     1
 90
        3
176
     1
 90
        0
176
     1
 90
        0
176
     1
290
     0
176
     1
 90
        1
176
     1
 40
0.0
176
     1
 90
        0
176
     1
290
     0
176
     1
290
     1
176
     1
290
     1
176
     1
290
     0
176
     1
290
     0
176
     1
290
     0
176
     1
290
     0
176
     1
290
     0
176
     1
290
     0
176
     1
 90
       50
176
     1
 40
0.0
176
     1
 40
1.0
176
     1
 90
        0
176
     1
 62
    18
420
        0
176
     1
 90
       50
176
     1
 90
        3
176
     1
 62
     5
420
      255
176
     1
290
     0
176
     1
 90
       50
176
     1
 90
       50
176
     1
 90
       50
176
     1
290
     0
176
     1
 90
       50
176
     1
 62
   256
176
     0
 40
1.0
176
     0
 90
        2
176
     1
  1
strokes_ogs.tif
176
     1
290
     0
176
     1
 40
1.0
176
     1
 40
1.0
176
     1
  0
VISUALSTYLE
  5
A27
102
{ACAD_REACTORS
330
A12
102
}
330
A12
100
AcDbVisualStyle
  2
Sketchy
 70
    24
177
     3
291
     0
 70
    58
 90
        1
176
     1
 90
        2
176
     1
 90
        2
176
     1
 90
        0
176
     1
 40
0.6
176
     1
 40
30.0
176
     1
 62
     7
420
 16777215
176
     1
 90
        2
176
     1
 90
        2
176
     1
 62
     7
176
     1
 62
     7
176
     1
 90
        1
176
     1
 90
        1
176
     1
 40
40.0
176
     1
 90
       11
176
     1
 62
     7
176
     1
 40
1.0
176
     1
 90
        1
176
     1
 90
        6
176
     1
 90
        2
176
     1
 62
     7
176
     1
 90
        6
176
     1
 90
        0
176
     1
 90
        0
176
     1
290
     0
176
     1
 90
        1
176
     1
 40
0.0
176
     1
 90
        0
176
     1
290
     0
176
     1
290
     1
176
     1
290
     1
176
     1
290
     0
176
     1
290
     0
176
     1
290
     0
176
     1
290
     0
176
     1
290
     0
176
     1
290
     0
176
     1
 90
       50
176
     1
 40
0.0
176
     1
 40
1.0
176
     1
 90
        0
176
     1
 62
    18
420
        0
176
     1
 90
       50
176
     1
 90
        3
176
     1
 62
     5
420
      255
176
     1
290
     0
176
     1
 90
       50
176
     1
 90
       50
176
     1
 90
       50
176
     1
290
     0
176
     1
 90
       50
176
     1
 62
   256
176
     0
 40
1.0
176
     0
 90
        2
176
     1
  1
strokes_ogs.tif
176
     1
290
     0
176
     1
 40
1.0
176
     1
 40
1.0
176
     1
  0
VISUALSTYLE
  5
A1F
102
{ACAD_REACTORS
330
A12
102
}
330
A12
100
AcDbVisualStyle
  2
Thicken
 70
    13
177
     3
291
     1
 70
    58
 90
        2
176
     1
 90
        2
176
     1
 90
        0
176
     1
 90
        0
176
     1
 40
0.6
176
     1
 40
30.0
176
     1
 62
     7
420
 16777215
176
     1
 90
        1
176
     1
 90
        4
176
     1
 62
     7
176
     1
 62
   257
176
     1
 90
        1
176
     1
 90
        1
176
     1
 40
1.0
176
     1
 90
       12
176
     1
 62
     7
176
     1
 40
1.0
176
     1
 90
        1
176
     1
 90
        6
176
     1
 90
        2
176
     1
 62
     7
176
     1
 90
        5
176
     1
 90
        0
176
     1
 90
        0
176
     1
290
     0
176
     1
 90
        1
176
     1
 40
0.0
176
     1
 90
        0
176
     1
290
     0
176
     1
290
     1
176
     1
290
     1
176
     1
290
     0
176
     1
290
     0
176
     1
290
     0
176
     1
290
     0
176
     1
290
     0
176
     1
290
     0
176
     1
 90
       50
176
     1
 40
0.0
176
     1
 40
1.0
176
     1
 90
        0
176
     1
 62
    18
420
        0
176
     1
 90
       50
176
     1
 90
        3
176
     1
 62
     5
420
      255
176
     1
290
     0
176
     1
 90
       50
176
     1
 90
       50
176
     1
 90
       50
176
     1
290
     0
176
     1
 90
       50
176
     1
 62
   256
176
     0
 40
1.0
176
     0
 90
        2
176
     1
  1
strokes_ogs.tif
176
     1
290
     0
176
     1
 40
1.0
176
     1
 40
1.0
176
     1
  0
VISUALSTYLE
  5
A18
102
{ACAD_REACTORS
330
A12
102
}
330
A12
100
AcDbVisualStyle
  2
Wireframe
 70
     5
177
     3
291
     0
 70
    58
 90
        0
176
     1
 90
        2
176
     1
 90
        0
176
     1
 90
        0
176
     1
 40
0.6
176
     1
 40
30.0
176
     1
 62
     7
420
 16777215
176
     1
 90
        1
176
     1
 90
        4
176
     1
 62
     7
176
     1
 62
   257
176
     1
 90
        1
176
     1
 90
        1
176
     1
 40
1.0
176
     1
 90
        0
176
     1
 62
   257
176
     1
 40
1.0
176
     1
 90
        1
176
     1
 90
        6
176
     1
 90
        2
176
     1
 62
     7
176
     1
 90
        3
176
     1
 90
        0
176
     1
 90
        0
176
     1
290
     0
176
     1
 90
        1
176
     1
 40
0.0
176
     1
 90
        0
176
     1
290
     0
176
     1
290
     1
176
     1
290
     1
176
     1
290
     0
176
     1
290
     0
176
     1
290
     0
176
     1
290
     0
176
     1
290
     0
176
     1
290
     0
176
     1
 90
       50
176
     1
 40
0.0
176
     1
 40
1.0
176
     1
 90
        0
176
     1
 62
    18
420
        0
176
     1
 90
       50
176
     1
 90
        3
176
     1
 62
     5
420
      255
176
     1
290
     0
176
     1
 90
       50
176
     1
 90
       50
176
     1
 90
       50
176
     1
290
     0
176
     1
 90
       50
176
     1
 62
   256
176
     0
 40
1.0
176
     0
 90
        2
176
     1
  1
strokes_ogs.tif
176
     1
290
     0
176
     1
 40
1.0
176
     1
 40
1.0
176
     1
  0
VISUALSTYLE
  5
A28
102
{ACAD_REACTORS
330
A12
102
}
330
A12
100
AcDbVisualStyle
  2
X-Ray
 70
    25
177
     3
291
     0
 70
    58
 90
        2
176
     1
 90
        2
176
     1
 90
        1
176
     1
 90
        1
176
     1
 40
0.5
176
     1
 40
30.0
176
     1
 62
     7
420
 16777215
176
     1
 90
        1
176
     1
 90
        0
176
     1
 62
     7
176
     1
 62
   257
176
     1
 90
        1
176
     1
 90
        1
176
     1
 40
1.0
176
     1
 90
        8
176
     1
 62
     7
176
     1
 40
1.0
176
     1
 90
        1
176
     1
 90
        6
176
     1
 90
        2
176
     1
 62
     7
176
     1
 90
        3
176
     1
 90
        0
176
     1
 90
        0
176
     1
290
     0
176
     1
 90
       13
176
     1
 40
0.0
176
     1
 90
        0
176
     1
290
     0
176
     1
290
     1
176
     1
290
     1
176
     1
290
     0
176
     1
290
     0
176
     1
290
     0
176
     1
290
     0
176
     1
290
     0
176
     1
290
     0
176
     1
 90
       50
176
     1
 40
0.0
176
     1
 40
1.0
176
     1
 90
        0
176
     1
 62
    18
420
        0
176
     1
 90
       50
176
     1
 90
        3
176
     1
 62
     5
420
      255
176
     1
290
     0
176
     1
 90
       50
176
     1
 90
       50
176
     1
 90
       50
176
     1
290
     0
176
     1
 90
       50
176
     1
 62
   256
176
     0
 40
1.0
176
     0
 90
        2
176
     1
  1
strokes_ogs.tif
176
     1
290
     0
176
     1
 40
1.0
176
     1
 40
1.0
176
     1
  0
DICTIONARYVAR
  5
A5F
102
{ACAD_REACTORS
330
A5E
102
}
330
A5E
100
DictionaryVariables
280
     0
  1
1:1
  0
DICTIONARYVAR
  5
A68
102
{ACAD_REACTORS
330
A5E
102
}
330
A5E
100
DictionaryVariables
280
     0
  1
3.500000
  0
DICTIONARYVAR
  5
A69
102
{ACAD_REACTORS
330
A5E
102
}
330
A5E
100
DictionaryVariables
280
     0
  1
acadiso.lin
  0
DICTIONARYVAR
  5
A64
102
{ACAD_REACTORS
330
A5E
102
}
330
A5E
100
DictionaryVariables
280
     0
  1
Standard
  0
DICTIONARYVAR
  5
A63
102
{ACAD_REACTORS
330
A5E
102
}
330
A5E
100
DictionaryVariables
280
     0
  1
Standard
  0
DICTIONARYVAR
  5
A65
102
{ACAD_REACTORS
330
A5E
102
}
330
A5E
100
DictionaryVariables
280
     0
  1
0
  0
DICTIONARY
  5
9E5
102
{ACAD_REACTORS
330
9E4
102
}
330
9E4
100
AcDbDictionary
281
     1
  3
CadsDesignViews
350
9E6
  3
CadsFloatingViewportData
350
9E7
  3
Viewport
350
9E8
  0
XRECORD
  5
A59
102
{ACAD_REACTORS
330
A58
102
}
330
A58
100
AcDbXrecord
280
     1
1040
1.0
  0
XRECORD
  5
A5A
102
{ACAD_REACTORS
330
A58
102
}
330
A58
100
AcDbXrecord
280
     1
1010
1.0
1020
1.0
1030
1.0
  0
XRECORD
  5
A5C
102
{ACAD_REACTORS
330
A58
102
}
330
A58
100
AcDbXrecord
280
     1
1000
22.2.1-Net ENG, Windows 10
  0
XRECORD
  5
A5D
102
{ACAD_REACTORS
330
A58
102
}
330
A58
100
AcDbXrecord
280
     1
1071
        0
  0
XRECORD
  5
A5B
102
{ACAD_REACTORS
330
A58
102
}
330
A58
100
AcDbXrecord
280
     1
1071
        0
  0
DICTIONARY
  5
A60
330
A42
100
AcDbDictionary
280
     1
281
     1
  3
ACAD_ROUNDTRIP_2008_TABLESTYLE_CELLSTYLEMAP
360
A61
  0
XRECORD
  5
9E6
102
{ACAD_REACTORS
330
9E5
102
}
330
9E5
100
AcDbXrecord
280
     1
  0
XRECORD
  5
9E7
102
{ACAD_REACTORS
330
9E5
102
}
330
9E5
100
AcDbXrecord
280
     1
  0
DICTIONARY
  5
9E8
102
{ACAD_REACTORS
330
9E5
102
}
330
9E5
100
AcDbDictionary
281
     1
  3
ViewportCadsVariablesXRecord
350
9E9
  0
CELLSTYLEMAP
  5
A61
102
{ACAD_REACTORS
330
A60
102
}
330
A60
100
AcDbCellStyleMap
 90
        3
300
CELLSTYLE
  1
TABLEFORMAT_BEGIN
 90
        5
170
     1
 91
        0
 92
    32768
 62
   257
 93
        1
300
CONTENTFORMAT
  1
CONTENTFORMAT_BEGIN
 90
        0
 91
        0
 92
        4
 93
        0
300

 40
0.0
140
1.0
 94
        5
 62
     0
340
9FA
144
6.0
309
CONTENTFORMAT_END
171
     1
301
MARGIN
  1
CELLMARGIN_BEGIN
 40
1.5
 40
1.5
 40
1.5
 40
1.5
 40
1.5
 40
1.5
309
CELLMARGIN_END
 94
        6
 95
        1
302
GRIDFORMAT
  1
GRIDFORMAT_BEGIN
 90
        0
 91
        1
 62
     0
 92
       -2
340
9FC
 93
        0
 40
0.045
309
GRIDFORMAT_END
 95
        2
302
GRIDFORMAT
  1
GRIDFORMAT_BEGIN
 90
        0
 91
        1
 62
     0
 92
       -2
340
9FC
 93
        0
 40
0.045
309
GRIDFORMAT_END
 95
        4
302
GRIDFORMAT
  1
GRIDFORMAT_BEGIN
 90
        0
 91
        1
 62
     0
 92
       -2
340
9FC
 93
        0
 40
0.045
309
GRIDFORMAT_END
 95
        8
302
GRIDFORMAT
  1
GRIDFORMAT_BEGIN
 90
        0
 91
        1
 62
     0
 92
       -2
340
9FC
 93
        0
 40
0.045
309
GRIDFORMAT_END
 95
       16
302
GRIDFORMAT
  1
GRIDFORMAT_BEGIN
 90
        0
 91
        1
 62
     0
 92
       -2
340
9FC
 93
        0
 40
0.045
309
GRIDFORMAT_END
 95
       32
302
GRIDFORMAT
  1
GRIDFORMAT_BEGIN
 90
        0
 91
        1
 62
     0
 92
       -2
340
9FC
 93
        0
 40
0.045
309
GRIDFORMAT_END
309
TABLEFORMAT_END
  1
CELLSTYLE_BEGIN
 90
        1
 91
        1
300
_TITLE
309
CELLSTYLE_END
300
CELLSTYLE
  1
TABLEFORMAT_BEGIN
 90
        5
170
     1
 91
        0
 92
        0
 62
   257
 93
        1
300
CONTENTFORMAT
  1
CONTENTFORMAT_BEGIN
 90
        0
 91
        0
 92
        4
 93
        0
300

 40
0.0
140
1.0
 94
        5
 62
     0
340
9FA
144
4.5
309
CONTENTFORMAT_END
171
     1
301
MARGIN
  1
CELLMARGIN_BEGIN
 40
1.5
 40
1.5
 40
1.5
 40
1.5
 40
1.5
 40
1.5
309
CELLMARGIN_END
 94
        6
 95
        1
302
GRIDFORMAT
  1
GRIDFORMAT_BEGIN
 90
        0
 91
        1
 62
     0
 92
       -2
340
9FC
 93
        0
 40
0.045
309
GRIDFORMAT_END
 95
        2
302
GRIDFORMAT
  1
GRIDFORMAT_BEGIN
 90
        0
 91
        1
 62
     0
 92
       -2
340
9FC
 93
        0
 40
0.045
309
GRIDFORMAT_END
 95
        4
302
GRIDFORMAT
  1
GRIDFORMAT_BEGIN
 90
        0
 91
        1
 62
     0
 92
       -2
340
9FC
 93
        0
 40
0.045
309
GRIDFORMAT_END
 95
        8
302
GRIDFORMAT
  1
GRIDFORMAT_BEGIN
 90
        0
 91
        1
 62
     0
 92
       -2
340
9FC
 93
        0
 40
0.045
309
GRIDFORMAT_END
 95
       16
302
GRIDFORMAT
  1
GRIDFORMAT_BEGIN
 90
        0
 91
        1
 62
     0
 92
       -2
340
9FC
 93
        0
 40
0.045
309
GRIDFORMAT_END
 95
       32
302
GRIDFORMAT
  1
GRIDFORMAT_BEGIN
 90
        0
 91
        1
 62
     0
 92
       -2
340
9FC
 93
        0
 40
0.045
309
GRIDFORMAT_END
309
TABLEFORMAT_END
  1
CELLSTYLE_BEGIN
 90
        2
 91
        1
300
_HEADER
309
CELLSTYLE_END
300
CELLSTYLE
  1
TABLEFORMAT_BEGIN
 90
        5
170
     1
 91
        0
 92
        0
 62
   257
 93
        1
300
CONTENTFORMAT
  1
CONTENTFORMAT_BEGIN
 90
        0
 91
        0
 92
        4
 93
        0
300

 40
0.0
140
1.0
 94
        2
 62
     0
340
9FA
144
4.5
309
CONTENTFORMAT_END
171
     1
301
MARGIN
  1
CELLMARGIN_BEGIN
 40
1.5
 40
1.5
 40
1.5
 40
1.5
 40
1.5
 40
1.5
309
CELLMARGIN_END
 94
        6
 95
        1
302
GRIDFORMAT
  1
GRIDFORMAT_BEGIN
 90
        0
 91
        1
 62
     0
 92
       -2
340
9FC
 93
        0
 40
0.045
309
GRIDFORMAT_END
 95
        2
302
GRIDFORMAT
  1
GRIDFORMAT_BEGIN
 90
        0
 91
        1
 62
     0
 92
       -2
340
9FC
 93
        0
 40
0.045
309
GRIDFORMAT_END
 95
        4
302
GRIDFORMAT
  1
GRIDFORMAT_BEGIN
 90
        0
 91
        1
 62
     0
 92
       -2
340
9FC
 93
        0
 40
0.045
309
GRIDFORMAT_END
 95
        8
302
GRIDFORMAT
  1
GRIDFORMAT_BEGIN
 90
        0
 91
        1
 62
     0
 92
       -2
340
9FC
 93
        0
 40
0.045
309
GRIDFORMAT_END
 95
       16
302
GRIDFORMAT
  1
GRIDFORMAT_BEGIN
 90
        0
 91
        1
 62
     0
 92
       -2
340
9FC
 93
        0
 40
0.045
309
GRIDFORMAT_END
 95
       32
302
GRIDFORMAT
  1
GRIDFORMAT_BEGIN
 90
        0
 91
        1
 62
     0
 92
       -2
340
9FC
 93
        0
 40
0.045
309
GRIDFORMAT_END
309
TABLEFORMAT_END
  1
CELLSTYLE_BEGIN
 90
        3
 91
        2
300
_DATA
309
CELLSTYLE_END
  0
XRECORD
  5
9E9
102
{ACAD_REACTORS
330
9E8
102
}
330
9E8
100
AcDbXrecord
280
     1
1004
160000000000000073657269616C697A6174696F6E3A3A617263686976651100040404080100000000000000000100000000000000000000000000000000020000000000000000000000000000
  0
ENDSEC
  0
EOF
