0
SECTION
2
HEADER
9
$EXTMIN
10
635206.833
20
6586315.472
9
$EXTMAX
10
635725.068
20
6586681.901
9
$LTSCALE
40
1
9
$TEXTSTYLE
7
STANDARD
0
ENDSEC
0
SECTION
2
TABLES
0
TABLE
2
LTYPE
70
4
0
LTYPE
2
XKITLINE00
70
64
3
XKITLINE00
72
65
73
0
40
0.00
0
LTYPE
2
XKITLINE01
70
64
3
XKITLINE01
72
65
73
2
40
2.0
49
1.0
49
-1.0
0
LTYPE
2
XKITLINE02
70
64
3
XKITLINE02
72
65
73
2
40
4.0
49
2.0
49
-2.0
0
LTYPE
2
XKITLINE03
70
64
3
XKITLINE03
72
65
73
4
40
5.0
49
3.0
49
-1.0
49
1.0
49
-1.0
0
ENDTAB
0
TABLE
2
STYLE
70
2
0
STYLE
2
XKITFONT
70
0
40
0.00
41
1.0
50
0.00
71
0
42
1.0
3
MONOTXT
0
ENDTAB
0
ENDSEC
0
SECTION
2
ENTITIES
0
TEXT
10
635501.745
20
6586501.745
30
0.000
40
0.015
41
1.000
1
6586500
50
0.000
51
0.000
8
0
62
7
0
TEXT
10
635498.255
20
6586501.745
30
0.000
40
0.015
41
1.000
1
635500
50
90.000
51
0.000
8
0
62
7
0
LINE
10
635272.166
20
6586344.826
30
0.000
11
635270.748
21
6586343.409
31
0.000
8
0
6
XKITLINE00
62
7
0
LINE
10
635270.748
20
6586344.826
30
0.000
11
635272.166
21
6586343.409
31
0.000
8
0
6
XKITLINE00
62
7
0
LINE
10
635313.763
20
6586395.431
30
0.000
11
635312.346
21
6586394.014
31
0.000
8
0
6
XKITLINE00
62
7
0
LINE
10
635312.346
20
6586395.431
30
0.000
11
635313.763
21
6586394.014
31
0.000
8
0
6
XKITLINE00
62
7
0
LINE
10
635537.779
20
6586638.732
30
0.000
11
635536.362
21
6586637.315
31
0.000
8
0
6
XKITLINE00
62
7
0
LINE
10
635536.362
20
6586638.732
30
0.000
11
635537.779
21
6586637.315
31
0.000
8
0
6
XKITLINE00
62
7
0
LINE
10
635487.916
20
6586394.955
30
0.000
11
635486.498
21
6586393.538
31
0.000
8
0
6
XKITLINE00
62
7
0
LINE
10
635486.498
20
6586394.955
30
0.000
11
635487.916
21
6586393.538
31
0.000
8
0
6
XKITLINE00
62
7
0
LINE
10
635390.189
20
6586484.017
30
0.000
11
635388.772
21
6586482.600
31
0.000
8
0
6
XKITLINE00
62
7
0
LINE
10
635388.772
20
6586484.017
30
0.000
11
635390.189
21
6586482.600
31
0.000
8
0
6
XKITLINE00
62
7
0
LINE
10
635333.908
20
6586359.056
30
0.000
11
635332.491
21
6586357.639
31
0.000
8
0
6
XKITLINE00
62
7
0
LINE
10
635332.491
20
6586359.056
30
0.000
11
635333.908
21
6586357.639
31
0.000
8
0
6
XKITLINE00
62
7
0
LINE
10
635520.728
20
6586446.408
30
0.000
11
635519.311
21
6586444.991
31
0.000
8
0
6
XKITLINE00
62
7
0
LINE
10
635519.311
20
6586446.408
30
0.000
11
635520.728
21
6586444.991
31
0.000
8
0
6
XKITLINE00
62
7
0
LINE
10
635251.340
20
6586413.320
30
0.000
11
635273.070
21
6586420.711
31
0.000
8
0
6
XKITLINE01
62
2
0
LINE
10
635483.051
20
6586454.469
30
0.000
11
635472.180
21
6586443.980
31
0.000
8
0
6
XKITLINE01
62
2
0
LINE
10
635472.180
20
6586443.980
30
0.000
11
635526.930
21
6586403.379
31
0.000
8
0
6
XKITLINE01
62
2
0
LINE
10
635221.648
20
6586381.449
30
0.000
11
635219.048
21
6586379.911
31
0.000
8
0
6
XKITLINE01
62
2
0
LINE
10
635251.340
20
6586413.320
30
0.000
11
635221.648
21
6586381.449
31
0.000
8
0
6
XKITLINE01
62
2
0
LINE
10
635273.070
20
6586420.711
30
0.000
11
635251.340
21
6586413.320
31
0.000
8
0
6
XKITLINE01
62
2
0
LINE
10
635296.871
20
6586418.340
30
0.000
11
635273.070
21
6586420.711
31
0.000
8
0
6
XKITLINE01
62
2
0
LINE
10
635326.430
20
6586413.770
30
0.000
11
635296.871
21
6586418.340
31
0.000
8
0
6
XKITLINE01
62
2
0
LINE
10
635345.078
20
6586395.762
30
0.000
11
635326.430
21
6586413.770
31
0.000
8
0
6
XKITLINE01
62
2
0
LINE
10
635353.219
20
6586371.551
30
0.000
11
635345.078
21
6586395.762
31
0.000
8
0
6
XKITLINE01
62
2
0
LINE
10
635371.969
20
6586353.609
30
0.000
11
635353.219
21
6586371.551
31
0.000
8
0
6
XKITLINE01
62
2
0
LINE
10
635394.491
20
6586327.687
30
0.000
11
635384.980
21
6586337.781
31
0.000
8
0
6
XKITLINE01
62
2
0
LINE
10
635384.980
20
6586337.781
30
0.000
11
635371.969
21
6586353.609
31
0.000
8
0
6
XKITLINE01
62
2
0
LINE
10
635565.762
20
6586332.691
30
0.000
11
635571.587
21
6586327.687
31
0.000
8
0
6
XKITLINE01
62
2
0
LINE
10
635511.762
20
6586375.559
30
0.000
11
635565.762
21
6586332.691
31
0.000
8
0
6
XKITLINE01
62
2
0
LINE
10
635502.480
20
6586364.109
30
0.000
11
635511.762
21
6586375.559
31
0.000
8
0
6
XKITLINE01
62
2
0
LINE
10
635454.211
20
6586399.449
30
0.000
11
635502.480
21
6586364.109
31
0.000
8
0
6
XKITLINE01
62
2
0
LINE
10
635471.691
20
6586425.340
30
0.000
11
635454.211
21
6586399.449
31
0.000
8
0
6
XKITLINE01
62
2
0
LINE
10
635280.770
20
6586562.352
30
0.000
11
635471.691
21
6586425.340
31
0.000
8
0
6
XKITLINE01
62
2
0
LINE
10
635273.539
20
6586552.031
30
0.000
11
635280.770
21
6586562.352
31
0.000
8
0
6
XKITLINE01
62
2
0
LINE
10
635274.250
20
6586567.109
30
0.000
11
635266.672
21
6586556.750
31
0.000
8
0
6
XKITLINE01
62
2
0
LINE
10
635265.102
20
6586573.879
30
0.000
11
635274.250
21
6586567.109
31
0.000
8
0
6
XKITLINE01
62
2
0
LINE
10
635219.048
20
6586508.392
30
0.000
11
635265.102
21
6586573.879
31
0.000
8
0
6
XKITLINE01
62
2
0
LINE
10
635266.672
20
6586556.750
30
0.000
11
635273.539
21
6586552.031
31
0.000
8
0
6
XKITLINE01
62
2
0
LINE
10
635219.048
20
6586607.210
30
0.000
11
635265.102
21
6586573.879
31
0.000
8
0
6
XKITLINE01
62
2
0
LINE
10
635265.102
20
6586573.879
30
0.000
11
635219.048
21
6586508.392
31
0.000
8
0
6
XKITLINE01
62
2
0
LINE
10
635219.048
20
6586356.061
30
0.000
11
635231.200
21
6586327.687
31
0.000
8
0
6
XKITLINE01
62
2
0
LINE
10
635384.980
20
6586337.781
30
0.000
11
635394.491
21
6586327.687
31
0.000
8
0
6
XKITLINE01
62
2
0
LINE
10
635379.430
20
6586333.922
30
0.000
11
635384.980
21
6586337.781
31
0.000
8
0
6
XKITLINE01
62
2
0
LINE
10
635371.476
20
6586327.687
30
0.000
11
635379.430
21
6586333.922
31
0.000
8
0
6
XKITLINE01
62
2
0
LINE
10
635219.048
20
6586645.565
30
0.000
11
635254.340
21
6586619.691
31
0.000
8
0
6
XKITLINE01
62
2
0
LINE
10
635254.340
20
6586619.691
30
0.000
11
635373.191
21
6586534.629
31
0.000
8
0
6
XKITLINE01
62
2
0
LINE
10
635373.191
20
6586534.629
30
0.000
11
635483.051
21
6586454.469
31
0.000
8
0
6
XKITLINE01
62
2
0
LINE
10
635526.930
20
6586403.379
30
0.000
11
635537.910
21
6586414.879
31
0.000
8
0
6
XKITLINE01
62
2
0
LINE
10
635537.910
20
6586414.879
30
0.000
11
635576.520
21
6586386.211
31
0.000
8
0
6
XKITLINE01
62
2
0
LINE
10
635576.520
20
6586386.211
30
0.000
11
635613.840
21
6586355.391
31
0.000
8
0
6
XKITLINE01
62
2
0
LINE
10
635613.840
20
6586355.391
30
0.000
11
635630.801
21
6586340.559
31
0.000
8
0
6
XKITLINE01
62
2
0
LINE
10
635630.801
20
6586340.559
30
0.000
11
635644.328
21
6586327.687
31
0.000
8
0
6
XKITLINE01
62
2
0
LINE
10
635571.587
20
6586327.687
30
0.000
11
635565.762
21
6586332.691
31
0.000
8
0
6
XKITLINE01
62
2
0
LINE
10
635565.762
20
6586332.691
30
0.000
11
635511.762
21
6586375.559
31
0.000
8
0
6
XKITLINE01
62
2
0
LINE
10
635511.762
20
6586375.559
30
0.000
11
635521.090
21
6586387.039
31
0.000
8
0
6
XKITLINE01
62
2
0
LINE
10
635521.090
20
6586387.039
30
0.000
11
635471.691
21
6586425.340
31
0.000
8
0
6
XKITLINE01
62
2
0
LINE
10
635471.691
20
6586425.340
30
0.000
11
635280.770
21
6586562.352
31
0.000
8
0
6
XKITLINE01
62
2
0
LINE
10
635280.770
20
6586562.352
30
0.000
11
635273.539
21
6586552.031
31
0.000
8
0
6
XKITLINE01
62
2
0
LINE
10
635273.539
20
6586552.031
30
0.000
11
635266.672
21
6586556.750
31
0.000
8
0
6
XKITLINE01
62
2
0
LINE
10
635266.672
20
6586556.750
30
0.000
11
635274.250
21
6586567.109
31
0.000
8
0
6
XKITLINE01
62
2
0
LINE
10
635274.250
20
6586567.109
30
0.000
11
635265.102
21
6586573.879
31
0.000
8
0
6
XKITLINE01
62
2
0
LINE
10
635265.102
20
6586573.879
30
0.000
11
635219.048
21
6586607.210
31
0.000
8
0
6
XKITLINE01
62
2
0
LINE
10
635564.691
20
6586442.891
30
0.000
11
635537.980
21
6586414.930
31
0.000
8
0
6
XKITLINE01
62
2
0
LINE
10
635472.180
20
6586443.980
30
0.000
11
635488.590
21
6586459.840
31
0.000
8
0
6
XKITLINE01
62
2
0
LINE
10
635488.590
20
6586459.840
30
0.000
11
635519.961
21
6586490.238
31
0.000
8
0
6
XKITLINE01
62
2
0
LINE
10
635519.961
20
6586490.238
30
0.000
11
635564.691
21
6586442.891
31
0.000
8
0
6
XKITLINE01
62
2
0
LINE
10
635537.980
20
6586414.930
30
0.000
11
635526.930
21
6586403.379
31
0.000
8
0
6
XKITLINE01
62
2
0
LINE
10
635526.930
20
6586403.379
30
0.000
11
635472.180
21
6586443.980
31
0.000
8
0
6
XKITLINE01
62
2
0
LINE
10
635511.762
20
6586375.559
30
0.000
11
635502.480
21
6586364.109
31
0.000
8
0
6
XKITLINE01
62
2
0
LINE
10
635454.211
20
6586399.449
30
0.000
11
635471.691
21
6586425.340
31
0.000
8
0
6
XKITLINE01
62
2
0
LINE
10
635471.691
20
6586425.340
30
0.000
11
635521.090
21
6586387.039
31
0.000
8
0
6
XKITLINE01
62
2
0
LINE
10
635521.090
20
6586387.039
30
0.000
11
635511.762
21
6586375.559
31
0.000
8
0
6
XKITLINE01
62
2
0
LINE
10
635502.480
20
6586364.109
30
0.000
11
635454.211
21
6586399.449
31
0.000
8
0
6
XKITLINE01
62
2
0
LINE
10
635219.048
20
6586379.911
30
0.000
11
635221.648
21
6586381.449
31
0.000
8
0
6
XKITLINE01
62
2
0
LINE
10
635231.200
20
6586327.687
30
0.000
11
635219.048
21
6586356.061
31
0.000
8
0
6
XKITLINE01
62
2
0
LINE
10
635221.648
20
6586381.449
30
0.000
11
635251.340
21
6586413.320
31
0.000
8
0
6
XKITLINE01
62
2
0
LINE
10
635273.070
20
6586420.711
30
0.000
11
635296.871
21
6586418.340
31
0.000
8
0
6
XKITLINE01
62
2
0
LINE
10
635296.871
20
6586418.340
30
0.000
11
635296.359
21
6586410.629
31
0.000
8
0
6
XKITLINE01
62
2
0
LINE
10
635296.359
20
6586410.629
30
0.000
11
635302.941
21
6586356.461
31
0.000
8
0
6
XKITLINE01
62
2
0
LINE
10
635302.941
20
6586356.461
30
0.000
11
635315.139
21
6586327.687
31
0.000
8
0
6
XKITLINE01
62
2
0
LINE
10
635315.139
20
6586327.687
30
0.000
11
635302.941
21
6586356.461
31
0.000
8
0
6
XKITLINE01
62
2
0
LINE
10
635326.430
20
6586413.770
30
0.000
11
635345.078
21
6586395.762
31
0.000
8
0
6
XKITLINE01
62
2
0
LINE
10
635302.941
20
6586356.461
30
0.000
11
635296.359
21
6586410.629
31
0.000
8
0
6
XKITLINE01
62
2
0
LINE
10
635296.359
20
6586410.629
30
0.000
11
635296.871
21
6586418.340
31
0.000
8
0
6
XKITLINE01
62
2
0
LINE
10
635296.871
20
6586418.340
30
0.000
11
635326.430
21
6586413.770
31
0.000
8
0
6
XKITLINE01
62
2
0
LINE
10
635345.078
20
6586395.762
30
0.000
11
635353.219
21
6586371.551
31
0.000
8
0
6
XKITLINE01
62
2
0
LINE
10
635353.219
20
6586371.551
30
0.000
11
635371.969
21
6586353.609
31
0.000
8
0
6
XKITLINE01
62
2
0
LINE
10
635371.969
20
6586353.609
30
0.000
11
635384.980
21
6586337.781
31
0.000
8
0
6
XKITLINE01
62
2
0
LINE
10
635384.980
20
6586337.781
30
0.000
11
635379.430
21
6586333.922
31
0.000
8
0
6
XKITLINE01
62
2
0
LINE
10
635379.430
20
6586333.922
30
0.000
11
635371.476
21
6586327.687
31
0.000
8
0
6
XKITLINE01
62
2
0
LINE
10
635644.328
20
6586327.687
30
0.000
11
635630.801
21
6586340.559
31
0.000
8
0
6
XKITLINE01
62
2
0
LINE
10
635630.801
20
6586340.559
30
0.000
11
635613.840
21
6586355.391
31
0.000
8
0
6
XKITLINE01
62
2
0
LINE
10
635613.840
20
6586355.391
30
0.000
11
635576.520
21
6586386.211
31
0.000
8
0
6
XKITLINE01
62
2
0
LINE
10
635576.520
20
6586386.211
30
0.000
11
635537.980
21
6586414.930
31
0.000
8
0
6
XKITLINE01
62
2
0
LINE
10
635537.980
20
6586414.930
30
0.000
11
635564.691
21
6586442.891
31
0.000
8
0
6
XKITLINE01
62
2
0
LINE
10
635564.691
20
6586442.891
30
0.000
11
635519.961
21
6586490.238
31
0.000
8
0
6
XKITLINE01
62
2
0
LINE
10
635373.191
20
6586534.629
30
0.000
11
635254.340
21
6586619.691
31
0.000
8
0
6
XKITLINE01
62
2
0
LINE
10
635519.961
20
6586490.238
30
0.000
11
635488.590
21
6586459.840
31
0.000
8
0
6
XKITLINE01
62
2
0
LINE
10
635488.590
20
6586459.840
30
0.000
11
635483.051
21
6586454.469
31
0.000
8
0
6
XKITLINE01
62
2
0
LINE
10
635483.051
20
6586454.469
30
0.000
11
635373.191
21
6586534.629
31
0.000
8
0
6
XKITLINE01
62
2
0
LINE
10
635254.340
20
6586619.691
30
0.000
11
635219.048
21
6586645.565
31
0.000
8
0
6
XKITLINE01
62
2
0
LINE
10
635499.883
20
6586373.129
30
0.000
11
635499.883
21
6586373.055
31
0.000
8
0
6
XKITLINE00
62
200
0
LINE
10
635499.883
20
6586373.215
30
0.000
11
635499.883
21
6586373.172
31
0.000
8
0
6
XKITLINE00
62
5
0
LINE
10
635499.883
20
6586372.980
30
0.000
11
635499.883
21
6586372.938
31
0.000
8
0
6
XKITLINE00
62
7
0
LINE
10
635499.785
20
6586372.980
30
0.000
11
635499.785
21
6586372.938
31
0.000
8
0
6
XKITLINE00
62
5
0
LINE
10
635499.980
20
6586372.980
30
0.000
11
635499.980
21
6586372.938
31
0.000
8
0
6
XKITLINE00
62
7
0
LINE
10
635499.883
20
6586373.031
30
0.000
11
635499.883
21
6586373.008
31
0.000
8
0
6
XKITLINE00
62
7
0
LINE
10
635499.883
20
6586373.008
30
0.000
11
635499.883
21
6586372.980
31
0.000
8
0
6
XKITLINE00
62
7
0
LINE
10
635276.000
20
6586562.000
30
0.000
11
635275.652
21
6586562.152
31
0.000
8
0
6
XKITLINE00
62
5
0
LINE
10
635499.785
20
6586372.980
30
0.000
11
635499.883
21
6586372.980
31
0.000
8
0
6
XKITLINE00
62
5
0
LINE
10
635499.883
20
6586372.980
30
0.000
11
635499.980
21
6586372.980
31
0.000
8
0
6
XKITLINE00
62
7
0
LINE
10
635499.883
20
6586373.055
30
0.000
11
635499.883
21
6586373.031
31
0.000
8
0
6
XKITLINE00
62
7
0
LINE
10
635499.883
20
6586373.262
30
0.000
11
635499.883
21
6586373.246
31
0.000
8
0
6
XKITLINE00
62
5
0
LINE
10
635499.883
20
6586373.172
30
0.000
11
635499.883
21
6586373.129
31
0.000
8
0
6
XKITLINE00
62
5
0
LINE
10
635499.883
20
6586373.246
30
0.000
11
635499.883
21
6586373.215
31
0.000
8
0
6
XKITLINE00
62
5
0
LINE
10
635499.785
20
6586372.938
30
0.000
11
635499.785
21
6586372.909
31
0.000
8
0
6
XKITLINE00
62
5
0
LINE
10
635499.785
20
6586372.895
30
0.000
11
635499.785
21
6586372.867
31
0.000
8
0
6
XKITLINE00
62
5
0
LINE
10
635499.785
20
6586372.867
30
0.000
11
635499.785
21
6586372.839
31
0.000
8
0
6
XKITLINE00
62
5
0
LINE
10
635499.785
20
6586372.825
30
0.000
11
635499.785
21
6586372.797
31
0.000
8
0
6
XKITLINE00
62
5
0
LINE
10
635499.980
20
6586372.938
30
0.000
11
635499.980
21
6586372.910
31
0.000
8
0
6
XKITLINE00
62
7
0
LINE
10
635499.980
20
6586372.896
30
0.000
11
635499.980
21
6586372.869
31
0.000
8
0
6
XKITLINE00
62
7
0
LINE
10
635499.980
20
6586372.869
30
0.000
11
635499.980
21
6586372.842
31
0.000
8
0
6
XKITLINE00
62
7
0
LINE
10
635499.980
20
6586372.828
30
0.000
11
635499.980
21
6586372.801
31
0.000
8
0
6
XKITLINE00
62
7
0
LINE
10
635499.883
20
6586372.938
30
0.000
11
635499.883
21
6586372.909
31
0.000
8
0
6
XKITLINE00
62
7
0
LINE
10
635499.883
20
6586372.895
30
0.000
11
635499.883
21
6586372.867
31
0.000
8
0
6
XKITLINE00
62
7
0
LINE
10
635499.883
20
6586372.867
30
0.000
11
635499.883
21
6586372.839
31
0.000
8
0
6
XKITLINE00
62
7
0
LINE
10
635499.883
20
6586372.825
30
0.000
11
635499.883
21
6586372.797
31
0.000
8
0
6
XKITLINE00
62
7
0
LINE
10
635499.781
20
6586372.512
30
0.000
11
635499.785
21
6586372.797
31
0.000
8
0
6
XKITLINE00
62
5
0
LINE
10
635276.000
20
6586562.000
30
0.000
11
635277.711
21
6586560.781
31
0.000
8
0
6
XKITLINE00
62
5
0
LINE
10
635277.711
20
6586560.781
30
0.000
11
635279.559
21
6586563.578
31
0.000
8
0
6
XKITLINE00
62
5
0
LINE
10
635279.559
20
6586563.578
30
0.000
11
635327.492
21
6586529.199
31
0.000
8
0
6
XKITLINE00
62
5
0
LINE
10
635492.250
20
6586410.992
30
0.000
11
635522.559
21
6586387.387
31
0.000
8
0
6
XKITLINE00
62
5
0
LINE
10
635522.559
20
6586387.387
30
0.000
11
635514.391
21
6586377.375
31
0.000
8
0
6
XKITLINE00
62
5
0
LINE
10
635514.391
20
6586377.375
30
0.000
11
635510.070
21
6586372.348
31
0.000
8
0
6
XKITLINE00
62
5
0
LINE
10
635510.070
20
6586372.348
30
0.000
11
635510.121
21
6586369.219
31
0.000
8
0
6
XKITLINE00
62
5
0
LINE
10
635510.121
20
6586369.219
30
0.000
11
635504.777
21
6586369.074
31
0.000
8
0
6
XKITLINE00
62
5
0
LINE
10
635504.777
20
6586369.074
30
0.000
11
635504.762
21
6586370.539
31
0.000
8
0
6
XKITLINE00
62
5
0
LINE
10
635504.762
20
6586370.539
30
0.000
11
635499.781
21
6586372.512
31
0.000
8
0
6
XKITLINE00
62
5
0
LINE
10
635464.340
20
6586432.922
30
0.000
11
635492.250
21
6586410.992
31
0.000
8
0
6
XKITLINE00
62
5
0
LINE
10
635427.492
20
6586458.160
30
0.000
11
635464.340
21
6586432.922
31
0.000
8
0
6
XKITLINE00
62
5
0
LINE
10
635327.492
20
6586529.199
30
0.000
11
635420.684
21
6586463.414
31
0.000
8
0
6
XKITLINE00
62
5
0
LINE
10
635420.684
20
6586463.414
30
0.000
11
635427.492
21
6586458.160
31
0.000
8
0
6
XKITLINE00
62
5
0
LINE
10
635499.883
20
6586372.797
30
0.000
11
635499.953
21
6586372.734
31
0.000
8
0
6
XKITLINE00
62
3
0
LINE
10
635505.988
20
6586372.160
30
0.000
11
635507.309
21
6586371.652
31
0.000
8
0
6
XKITLINE00
62
3
0
LINE
10
635502.152
20
6586372.605
30
0.000
11
635505.988
21
6586372.160
31
0.000
8
0
6
XKITLINE00
62
3
0
LINE
10
635501.918
20
6586372.133
30
0.000
11
635505.793
21
6586371.414
31
0.000
8
0
6
XKITLINE00
62
3
0
LINE
10
635500.957
20
6586372.738
30
0.000
11
635502.152
21
6586372.605
31
0.000
8
0
6
XKITLINE00
62
3
0
LINE
10
635499.953
20
6586372.734
30
0.000
11
635501.918
21
6586372.133
31
0.000
8
0
6
XKITLINE00
62
3
0
LINE
10
635499.980
20
6586372.801
30
0.000
11
635500.957
21
6586372.738
31
0.000
8
0
6
XKITLINE00
62
3
0
LINE
10
635505.793
20
6586371.414
30
0.000
11
635506.602
21
6586370.539
31
0.000
8
0
6
XKITLINE00
62
3
0
LINE
10
635537.270
20
6586412.707
30
0.000
11
635537.387
21
6586415.449
31
0.000
8
0
6
XKITLINE00
62
3
0
LINE
10
635506.602
20
6586370.539
30
0.000
11
635480.762
21
6586334.711
31
0.000
8
0
6
XKITLINE00
62
3
0
LINE
10
635480.762
20
6586334.711
30
0.000
11
635475.692
21
6586327.687
31
0.000
8
0
6
XKITLINE00
62
3
0
LINE
10
635508.895
20
6586378.637
30
0.000
11
635537.270
21
6586412.707
31
0.000
8
0
6
XKITLINE00
62
3
0
LINE
10
635507.309
20
6586371.652
30
0.000
11
635508.895
21
6586378.637
31
0.000
8
0
6
XKITLINE00
62
3
0
LINE
10
635499.086
20
6586369.504
30
0.000
11
635499.199
21
6586373.246
31
0.000
8
0
6
XKITLINE00
62
1
0
LINE
10
635464.525
20
6586327.687
30
0.000
11
635499.086
21
6586369.504
31
0.000
8
0
6
XKITLINE00
62
1
0
LINE
10
635270.297
20
6586558.832
30
0.000
11
635270.297
21
6586558.832
31
0.000
8
0
6
XKITLINE00
62
5
0
LINE
10
635270.297
20
6586558.832
30
0.000
11
635270.297
21
6586558.832
31
0.000
8
0
6
XKITLINE00
62
5
0
LINE
10
635276.000
20
6586562.000
30
0.000
11
635276.000
21
6586565.000
31
0.000
8
0
6
XKITLINE00
62
5
0
LINE
10
635272.800
20
6586566.000
30
0.000
11
635279.200
21
6586566.000
31
0.000
8
0
6
XKITLINE00
62
5
0
LINE
10
635279.200
20
6586566.000
30
0.000
11
635279.200
21
6586565.000
31
0.000
8
0
6
XKITLINE00
62
5
0
LINE
10
635279.200
20
6586565.000
30
0.000
11
635272.800
21
6586565.000
31
0.000
8
0
6
XKITLINE00
62
5
0
LINE
10
635272.800
20
6586565.000
30
0.000
11
635272.800
21
6586566.000
31
0.000
8
0
6
XKITLINE00
62
5
0
LINE
10
635272.800
20
6586566.000
30
0.000
11
635272.800
21
6586566.000
31
0.000
8
0
6
XKITLINE00
62
5
0
LINE
10
635537.387
20
6586415.449
30
0.000
11
635537.387
21
6586418.449
31
0.000
8
0
6
XKITLINE00
62
3
0
LINE
10
635534.187
20
6586419.449
30
0.000
11
635540.587
21
6586419.449
31
0.000
8
0
6
XKITLINE00
62
3
0
LINE
10
635540.587
20
6586419.449
30
0.000
11
635540.587
21
6586418.449
31
0.000
8
0
6
XKITLINE00
62
3
0
LINE
10
635540.587
20
6586418.449
30
0.000
11
635534.187
21
6586418.449
31
0.000
8
0
6
XKITLINE00
62
3
0
LINE
10
635534.187
20
6586418.449
30
0.000
11
635534.187
21
6586419.449
31
0.000
8
0
6
XKITLINE00
62
3
0
LINE
10
635534.187
20
6586419.449
30
0.000
11
635534.187
21
6586419.449
31
0.000
8
0
6
XKITLINE00
62
3
0
LINE
10
635499.883
20
6586372.980
30
0.000
11
635499.877
21
6586372.980
31
0.000
8
0
6
XKITLINE00
62
7
0
LINE
10
635499.883
20
6586372.974
30
0.000
11
635499.883
21
6586372.986
31
0.000
8
0
6
XKITLINE00
62
7
0
LINE
10
635499.881
20
6586372.982
30
0.000
11
635499.881
21
6586372.980
31
0.000
8
0
6
XKITLINE00
62
7
0
LINE
10
635499.881
20
6586372.980
30
0.000
11
635499.881
21
6586372.979
31
0.000
8
0
6
XKITLINE00
62
7
0
LINE
10
635499.881
20
6586372.979
30
0.000
11
635499.883
21
6586372.978
31
0.000
8
0
6
XKITLINE00
62
7
0
LINE
10
635499.883
20
6586372.978
30
0.000
11
635499.884
21
6586372.979
31
0.000
8
0
6
XKITLINE00
62
7
0
LINE
10
635499.884
20
6586372.979
30
0.000
11
635499.885
21
6586372.980
31
0.000
8
0
6
XKITLINE00
62
7
0
LINE
10
635499.885
20
6586372.980
30
0.000
11
635499.884
21
6586372.982
31
0.000
8
0
6
XKITLINE00
62
7
0
LINE
10
635499.884
20
6586372.982
30
0.000
11
635499.883
21
6586372.982
31
0.000
8
0
6
XKITLINE00
62
7
0
LINE
10
635499.883
20
6586372.982
30
0.000
11
635499.881
21
6586372.982
31
0.000
8
0
6
XKITLINE00
62
7
0
LINE
10
635499.881
20
6586372.982
30
0.000
11
635499.881
21
6586372.982
31
0.000
8
0
6
XKITLINE00
62
7
0
LINE
10
635274.015
20
6586562.331
30
0.000
11
635275.074
21
6586563.787
31
0.000
8
0
6
XKITLINE00
62
5
0
LINE
10
635275.074
20
6586563.787
30
0.000
11
635277.985
21
6586561.669
31
0.000
8
0
6
XKITLINE00
62
5
0
LINE
10
635277.985
20
6586561.669
30
0.000
11
635276.926
21
6586560.213
31
0.000
8
0
6
XKITLINE00
62
5
0
LINE
10
635276.926
20
6586560.213
30
0.000
11
635274.015
21
6586562.331
31
0.000
8
0
6
XKITLINE00
62
5
0
LINE
10
635274.015
20
6586562.331
30
0.000
11
635277.985
21
6586561.669
31
0.000
8
0
6
XKITLINE00
62
5
0
LINE
10
635275.471
20
6586561.272
30
0.000
11
635277.456
21
6586560.941
31
0.000
8
0
6
XKITLINE00
62
5
0
LINE
10
635499.980
20
6586372.938
30
0.000
11
635499.980
21
6586372.945
31
0.000
8
0
6
XKITLINE00
62
7
0
LINE
10
635499.968
20
6586372.969
30
0.000
11
635499.980
21
6586372.945
31
0.000
8
0
6
XKITLINE00
62
7
0
LINE
10
635499.980
20
6586372.979
30
0.000
11
635499.980
21
6586372.969
31
0.000
8
0
6
XKITLINE00
62
7
0
LINE
10
635499.976
20
6586372.980
30
0.000
11
635499.984
21
6586372.971
31
0.000
8
0
6
XKITLINE00
62
7
0
LINE
10
635499.984
20
6586372.980
30
0.000
11
635499.976
21
6586372.971
31
0.000
8
0
6
XKITLINE00
62
7
0
LINE
10
635499.986
20
6586372.970
30
0.000
11
635499.974
21
6586372.969
31
0.000
8
0
6
XKITLINE00
62
7
0
LINE
10
635499.883
20
6586372.938
30
0.000
11
635499.883
21
6586372.945
31
0.000
8
0
6
XKITLINE00
62
7
0
LINE
10
635499.871
20
6586372.970
30
0.000
11
635499.883
21
6586372.945
31
0.000
8
0
6
XKITLINE00
62
7
0
LINE
10
635499.883
20
6586372.979
30
0.000
11
635499.883
21
6586372.969
31
0.000
8
0
6
XKITLINE00
62
7
0
LINE
10
635499.879
20
6586372.980
30
0.000
11
635499.887
21
6586372.971
31
0.000
8
0
6
XKITLINE00
62
7
0
LINE
10
635499.888
20
6586372.980
30
0.000
11
635499.879
21
6586372.971
31
0.000
8
0
6
XKITLINE00
62
7
0
LINE
10
635499.889
20
6586372.969
30
0.000
11
635499.877
21
6586372.970
31
0.000
8
0
6
XKITLINE00
62
7
0
LINE
10
635499.785
20
6586372.938
30
0.000
11
635499.785
21
6586372.945
31
0.000
8
0
6
XKITLINE00
62
5
0
LINE
10
635499.773
20
6586372.970
30
0.000
11
635499.785
21
6586372.945
31
0.000
8
0
6
XKITLINE00
62
5
0
CIRCLE
10
635499.785
20
6586372.969
30
0.000
40
0.002
8
0
6
XKITLINE00
62
5
0
LINE
10
635499.786
20
6586372.979
30
0.000
11
635499.785
21
6586372.971
31
0.000
8
0
6
XKITLINE00
62
5
0
LINE
10
635499.780
20
6586372.976
30
0.000
11
635499.792
21
6586372.975
31
0.000
8
0
6
XKITLINE00
62
5
0
LINE
10
635499.779
20
6586372.951
30
0.000
11
635499.785
21
6586372.953
31
0.000
8
0
6
XKITLINE00
62
5
0
LINE
10
635499.785
20
6586372.953
30
0.000
11
635499.779
21
6586372.964
31
0.000
8
0
6
XKITLINE00
62
5
0
LINE
10
635499.779
20
6586372.964
30
0.000
11
635499.774
21
6586372.961
31
0.000
8
0
6
XKITLINE00
62
5
0
LINE
10
635499.774
20
6586372.961
30
0.000
11
635499.779
21
6586372.951
31
0.000
8
0
6
XKITLINE00
62
5
0
LINE
10
635276.000
20
6586562.000
30
0.000
11
635276.000
21
6586562.008
31
0.000
8
0
6
XKITLINE00
62
5
0
LINE
10
635275.988
20
6586562.032
30
0.000
11
635276.000
21
6586562.008
31
0.000
8
0
6
XKITLINE00
62
5
0
CIRCLE
10
635276.000
20
6586562.032
30
0.000
40
0.002
8
0
6
XKITLINE00
62
5
0
LINE
10
635276.000
20
6586562.042
30
0.000
11
635276.000
21
6586562.034
31
0.000
8
0
6
XKITLINE00
62
5
0
LINE
10
635275.994
20
6586562.038
30
0.000
11
635276.006
21
6586562.038
31
0.000
8
0
6
XKITLINE00
62
5
0
LINE
10
635276.000
20
6586562.000
30
0.000
11
635275.993
21
6586562.003
31
0.000
8
0
6
XKITLINE00
62
5
0
LINE
10
635275.966
20
6586562.002
30
0.000
11
635275.993
21
6586562.003
31
0.000
8
0
6
XKITLINE00
62
5
0
CIRCLE
10
635275.971
20
6586562.013
30
0.000
40
0.002
8
0
6
XKITLINE00
62
5
0
LINE
10
635275.962
20
6586562.017
30
0.000
11
635275.969
21
6586562.014
31
0.000
8
0
6
XKITLINE00
62
5
0
LINE
10
635275.963
20
6586562.010
30
0.000
11
635275.968
21
6586562.021
31
0.000
8
0
6
XKITLINE00
62
5
0
LINE
10
635499.883
20
6586373.008
30
0.000
11
635499.883
21
6586373.016
31
0.000
8
0
6
XKITLINE00
62
7
0
LINE
10
635499.871
20
6586373.040
30
0.000
11
635499.883
21
6586373.016
31
0.000
8
0
6
XKITLINE00
62
7
0
CIRCLE
10
635499.883
20
6586373.040
30
0.000
40
0.002
8
0
6
XKITLINE00
62
7
0
LINE
10
635499.883
20
6586373.050
30
0.000
11
635499.883
21
6586373.042
31
0.000
8
0
6
XKITLINE00
62
7
0
LINE
10
635499.877
20
6586373.046
30
0.000
11
635499.889
21
6586373.046
31
0.000
8
0
6
XKITLINE00
62
7
0
LINE
10
635499.877
20
6586372.938
30
0.000
11
635499.889
21
6586372.938
31
0.000
8
0
6
XKITLINE00
62
7
0
LINE
10
635499.889
20
6586372.938
30
0.000
11
635499.883
21
6586372.925
31
0.000
8
0
6
XKITLINE00
62
7
0
LINE
10
635499.883
20
6586372.925
30
0.000
11
635499.877
21
6586372.938
31
0.000
8
0
6
XKITLINE00
62
7
0
LINE
10
635499.974
20
6586372.938
30
0.000
11
635499.986
21
6586372.938
31
0.000
8
0
6
XKITLINE00
62
7
0
LINE
10
635499.986
20
6586372.938
30
0.000
11
635499.980
21
6586372.925
31
0.000
8
0
6
XKITLINE00
62
7
0
LINE
10
635499.980
20
6586372.925
30
0.000
11
635499.974
21
6586372.938
31
0.000
8
0
6
XKITLINE00
62
7
0
LINE
10
635499.779
20
6586372.938
30
0.000
11
635499.791
21
6586372.938
31
0.000
8
0
6
XKITLINE00
62
5
0
LINE
10
635499.791
20
6586372.938
30
0.000
11
635499.785
21
6586372.925
31
0.000
8
0
6
XKITLINE00
62
5
0
LINE
10
635499.785
20
6586372.925
30
0.000
11
635499.779
21
6586372.938
31
0.000
8
0
6
XKITLINE00
62
5
0
CIRCLE
10
635499.883
20
6586373.262
30
0.000
40
0.001
8
0
6
XKITLINE00
62
4
0
LINE
10
635499.882
20
6586373.263
30
0.000
11
635499.881
21
6586373.262
31
0.000
8
0
6
XKITLINE00
62
4
0
LINE
10
635499.881
20
6586373.262
30
0.000
11
635499.882
21
6586373.261
31
0.000
8
0
6
XKITLINE00
62
4
0
LINE
10
635499.882
20
6586373.261
30
0.000
11
635499.883
21
6586373.260
31
0.000
8
0
6
XKITLINE00
62
4
0
LINE
10
635499.883
20
6586373.260
30
0.000
11
635499.884
21
6586373.261
31
0.000
8
0
6
XKITLINE00
62
4
0
LINE
10
635499.884
20
6586373.261
30
0.000
11
635499.884
21
6586373.262
31
0.000
8
0
6
XKITLINE00
62
4
0
LINE
10
635499.884
20
6586373.262
30
0.000
11
635499.884
21
6586373.263
31
0.000
8
0
6
XKITLINE00
62
4
0
LINE
10
635499.884
20
6586373.263
30
0.000
11
635499.883
21
6586373.263
31
0.000
8
0
6
XKITLINE00
62
4
0
LINE
10
635499.883
20
6586373.263
30
0.000
11
635499.882
21
6586373.263
31
0.000
8
0
6
XKITLINE00
62
4
0
LINE
10
635499.882
20
6586373.263
30
0.000
11
635499.882
21
6586373.263
31
0.000
8
0
6
XKITLINE00
62
4
0
CIRCLE
10
635499.883
20
6586373.262
30
0.000
40
0.005
8
0
6
XKITLINE00
62
1
0
LINE
10
635499.901
20
6586373.255
30
0.000
11
635499.919
21
6586373.237
31
0.000
8
0
6
XKITLINE00
62
7
0
LINE
10
635499.925
20
6586373.237
30
0.000
11
635499.919
21
6586373.237
31
0.000
8
0
6
XKITLINE00
62
7
0
LINE
10
635499.895
20
6586373.255
30
0.000
11
635499.901
21
6586373.255
31
0.000
8
0
6
XKITLINE00
62
7
0
LINE
10
635499.937
20
6586373.245
30
0.000
11
635499.937
21
6586373.247
31
0.000
8
0
6
XKITLINE00
62
7
0
LINE
10
635499.934
20
6586373.243
30
0.000
11
635499.934
21
6586373.249
31
0.000
8
0
6
XKITLINE00
62
7
0
LINE
10
635499.931
20
6586373.240
30
0.000
11
635499.931
21
6586373.252
31
0.000
8
0
6
XKITLINE00
62
7
0
LINE
10
635499.895
20
6586373.252
30
0.000
11
635499.895
21
6586373.240
31
0.000
8
0
6
XKITLINE00
62
7
0
LINE
10
635499.925
20
6586373.252
30
0.000
11
635499.895
21
6586373.252
31
0.000
8
0
6
XKITLINE00
62
7
0
LINE
10
635499.925
20
6586373.240
30
0.000
11
635499.925
21
6586373.252
31
0.000
8
0
6
XKITLINE00
62
7
0
LINE
10
635499.895
20
6586373.240
30
0.000
11
635499.925
21
6586373.240
31
0.000
8
0
6
XKITLINE00
62
7
0
LINE
10
635499.925
20
6586373.246
30
0.000
11
635499.931
21
6586373.246
31
0.000
8
0
6
XKITLINE00
62
7
0
LINE
10
635499.883
20
6586373.246
30
0.000
11
635499.895
21
6586373.246
31
0.000
8
0
6
XKITLINE00
62
7
0
LINE
10
635499.883
20
6586373.055
30
0.000
11
635499.883
21
6586373.067
31
0.000
8
0
6
XKITLINE00
62
4
0
CIRCLE
10
635499.883
20
6586373.085
30
0.000
40
0.018
8
0
6
XKITLINE00
62
4
0
CIRCLE
10
635499.883
20
6586373.109
30
0.000
40
0.018
8
0
6
XKITLINE00
62
4
0
LINE
10
635499.883
20
6586373.127
30
0.000
11
635499.883
21
6586373.139
31
0.000
8
0
6
XKITLINE00
62
4
0
LINE
10
635499.883
20
6586373.182
30
0.000
11
635499.883
21
6586373.206
31
0.000
8
0
6
XKITLINE00
62
7
0
LINE
10
635499.889
20
6586373.206
30
0.000
11
635499.889
21
6586373.182
31
0.000
8
0
6
XKITLINE00
62
7
0
LINE
10
635499.877
20
6586373.206
30
0.000
11
635499.889
21
6586373.206
31
0.000
8
0
6
XKITLINE00
62
7
0
LINE
10
635499.883
20
6586373.212
30
0.000
11
635499.883
21
6586373.206
31
0.000
8
0
6
XKITLINE00
62
7
0
LINE
10
635499.877
20
6586373.182
30
0.000
11
635499.877
21
6586373.206
31
0.000
8
0
6
XKITLINE00
62
7
0
LINE
10
635499.889
20
6586373.182
30
0.000
11
635499.877
21
6586373.182
31
0.000
8
0
6
XKITLINE00
62
7
0
LINE
10
635499.883
20
6586373.216
30
0.000
11
635499.883
21
6586373.222
31
0.000
8
0
6
XKITLINE00
62
7
0
LINE
10
635499.883
20
6586373.172
30
0.000
11
635499.883
21
6586373.166
31
0.000
8
0
6
XKITLINE00
62
7
0
LINE
10
635499.883
20
6586373.182
30
0.000
11
635499.883
21
6586373.176
31
0.000
8
0
6
XKITLINE00
62
7
0
LINE
10
635499.883
20
6586373.212
30
0.000
11
635499.890
21
6586373.217
31
0.000
8
0
6
XKITLINE00
62
7
0
LINE
10
635499.883
20
6586373.212
30
0.000
11
635499.876
21
6586373.217
31
0.000
8
0
6
XKITLINE00
62
7
0
LINE
10
635499.883
20
6586373.176
30
0.000
11
635499.890
21
6586373.171
31
0.000
8
0
6
XKITLINE00
62
7
0
LINE
10
635499.876
20
6586373.171
30
0.000
11
635499.883
21
6586373.176
31
0.000
8
0
6
XKITLINE00
62
7
0
LINE
10
635499.883
20
6586373.172
30
0.000
11
635499.890
21
6586373.167
31
0.000
8
0
6
XKITLINE00
62
7
0
LINE
10
635499.876
20
6586373.167
30
0.000
11
635499.883
21
6586373.172
31
0.000
8
0
6
XKITLINE00
62
7
0
LINE
10
635499.883
20
6586373.216
30
0.000
11
635499.876
21
6586373.221
31
0.000
8
0
6
XKITLINE00
62
7
0
LINE
10
635499.883
20
6586373.216
30
0.000
11
635499.890
21
6586373.221
31
0.000
8
0
6
XKITLINE00
62
7
0
LINE
10
635505.329
20
6586373.632
30
0.000
11
635505.329
21
6586369.672
31
0.000
8
0
6
XKITLINE00
62
7
0
LINE
10
635505.329
20
6586369.672
30
0.000
11
635509.289
21
6586369.672
31
0.000
8
0
6
XKITLINE00
62
7
0
LINE
10
635509.289
20
6586369.672
30
0.000
11
635509.289
21
6586373.632
31
0.000
8
0
6
XKITLINE00
62
7
0
LINE
10
635509.289
20
6586373.632
30
0.000
11
635505.329
21
6586373.632
31
0.000
8
0
6
XKITLINE00
62
7
0
LINE
10
635506.915
20
6586380.617
30
0.000
11
635506.915
21
6586376.657
31
0.000
8
0
6
XKITLINE00
62
7
0
LINE
10
635506.915
20
6586376.657
30
0.000
11
635510.875
21
6586376.657
31
0.000
8
0
6
XKITLINE00
62
7
0
LINE
10
635510.875
20
6586376.657
30
0.000
11
635510.875
21
6586380.617
31
0.000
8
0
6
XKITLINE00
62
7
0
LINE
10
635510.875
20
6586380.617
30
0.000
11
635506.915
21
6586380.617
31
0.000
8
0
6
XKITLINE00
62
7
0
LINE
10
635540.068
20
6586412.799
30
0.000
11
635537.177
21
6586415.506
31
0.000
8
0
6
XKITLINE00
62
7
0
LINE
10
635537.177
20
6586415.506
30
0.000
11
635534.471
21
6586412.615
31
0.000
8
0
6
XKITLINE00
62
7
0
LINE
10
635534.471
20
6586412.615
30
0.000
11
635537.362
21
6586409.908
31
0.000
8
0
6
XKITLINE00
62
7
0
LINE
10
635537.362
20
6586409.908
30
0.000
11
635540.068
21
6586412.799
31
0.000
8
0
6
XKITLINE00
62
7
0
LINE
10
635477.988
20
6586334.330
30
0.000
11
635481.143
21
6586331.937
31
0.000
8
0
6
XKITLINE00
62
7
0
LINE
10
635481.143
20
6586331.937
30
0.000
11
635483.536
21
6586335.092
31
0.000
8
0
6
XKITLINE00
62
7
0
LINE
10
635483.536
20
6586335.092
30
0.000
11
635480.380
21
6586337.485
31
0.000
8
0
6
XKITLINE00
62
7
0
LINE
10
635480.380
20
6586337.485
30
0.000
11
635477.988
21
6586334.330
31
0.000
8
0
6
XKITLINE00
62
7
0
LINE
10
635497.106
20
6586371.484
30
0.000
11
635497.106
21
6586367.524
31
0.000
8
0
6
XKITLINE00
62
7
0
LINE
10
635497.106
20
6586367.524
30
0.000
11
635501.066
21
6586367.524
31
0.000
8
0
6
XKITLINE00
62
7
0
LINE
10
635501.066
20
6586367.524
30
0.000
11
635501.066
21
6586371.484
31
0.000
8
0
6
XKITLINE00
62
7
0
LINE
10
635501.066
20
6586371.484
30
0.000
11
635497.106
21
6586371.484
31
0.000
8
0
6
XKITLINE00
62
7
0
LINE
10
635276.000
20
6586562.000
30
0.000
11
635275.658
21
6586561.462
31
0.000
8
0
6
XKITLINE00
62
5
0
LINE
10
635274.975
20
6586560.386
30
0.000
11
635273.609
21
6586558.233
31
0.000
8
0
6
XKITLINE00
62
5
0
LINE
10
635271.995
20
6586559.258
30
0.000
11
635275.223
21
6586557.209
31
0.000
8
0
6
XKITLINE00
62
5
0
LINE
10
635275.317
20
6586560.924
30
0.000
11
635275.658
21
6586561.462
31
0.000
8
0
6
XKITLINE00
62
5
0
LINE
10
635271.705
20
6586556.423
30
0.000
11
635272.781
21
6586555.740
31
0.000
8
0
6
XKITLINE00
62
5
0
LINE
10
635274.975
20
6586560.386
30
0.000
11
635275.317
21
6586560.924
31
0.000
8
0
6
XKITLINE00
62
5
0
LINE
10
635271.850
20
6586557.840
30
0.000
11
635274.002
21
6586556.474
31
0.000
8
0
6
XKITLINE00
62
5
0
CIRCLE
10
635499.883
20
6586373.262
30
0.000
40
5.250
8
0
6
XKITLINE00
62
1
0
CIRCLE
10
635499.883
20
6586373.262
30
0.000
40
4.900
8
0
6
XKITLINE00
62
1
0
CIRCLE
10
635499.883
20
6586373.262
30
0.000
40
4.550
8
0
6
XKITLINE00
62
1
0
LINE
10
635499.878
20
6586373.262
30
0.000
11
635499.888
21
6586373.262
31
0.000
8
0
6
XKITLINE00
62
1
0
LINE
10
635499.883
20
6586373.257
30
0.000
11
635499.883
21
6586373.267
31
0.000
8
0
6
XKITLINE00
62
1
0
LINE
10
635499.883
20
6586373.082
30
0.000
11
635499.883
21
6586373.087
31
0.000
8
0
6
XKITLINE00
62
7
0
LINE
10
635499.874
20
6586373.078
30
0.000
11
635499.878
21
6586373.078
31
0.000
8
0
6
XKITLINE00
62
7
0
LINE
10
635499.878
20
6586373.078
30
0.000
11
635499.883
21
6586373.082
31
0.000
8
0
6
XKITLINE00
62
7
0
LINE
10
635499.887
20
6586373.091
30
0.000
11
635499.883
21
6586373.087
31
0.000
8
0
6
XKITLINE00
62
7
0
LINE
10
635499.887
20
6586373.073
30
0.000
11
635499.887
21
6586373.078
31
0.000
8
0
6
XKITLINE00
62
7
0
LINE
10
635499.887
20
6586373.078
30
0.000
11
635499.883
21
6586373.082
31
0.000
8
0
6
XKITLINE00
62
7
0
LINE
10
635499.883
20
6586373.118
30
0.000
11
635499.874
21
6586373.105
31
0.000
8
0
6
XKITLINE00
62
7
0
LINE
10
635499.874
20
6586373.105
30
0.000
11
635499.892
21
6586373.105
31
0.000
8
0
6
XKITLINE00
62
7
0
LINE
10
635499.892
20
6586373.105
30
0.000
11
635499.883
21
6586373.118
31
0.000
8
0
6
XKITLINE00
62
7
0
LINE
10
635499.883
20
6586373.118
30
0.000
11
635499.883
21
6586373.118
31
0.000
8
0
6
XKITLINE00
62
7
0
LINE
10
635528.912
20
6586393.620
30
0.000
11
635528.339
21
6586394.735
31
0.000
8
0
6
XKITLINE00
62
7
0
LINE
10
635521.690
20
6586398.990
30
0.000
11
635528.912
21
6586393.620
31
0.000
8
0
6
XKITLINE00
62
7
0
LINE
10
635528.904
20
6586393.613
30
0.000
11
635527.667
21
6586393.836
31
0.000
8
0
6
XKITLINE00
62
7
0
LINE
10
635521.690
20
6586398.990
30
0.000
11
635522.915
21
6586398.752
31
0.000
8
0
6
XKITLINE00
62
7
0
LINE
10
635521.690
20
6586398.990
30
0.000
11
635522.257
21
6586397.867
31
0.000
8
0
6
XKITLINE00
62
7
0
CIRCLE
10
635514.615
20
6586385.125
30
0.000
40
1.425
8
0
6
XKITLINE00
62
7
0
LINE
10
635513.673
20
6586384.056
30
0.000
11
635510.217
21
6586380.137
31
0.000
8
0
6
XKITLINE02
62
7
0
CIRCLE
10
635502.563
20
6586364.421
30
0.000
40
1.425
8
0
6
XKITLINE00
62
7
0
LINE
10
635503.345
20
6586365.612
30
0.000
11
635506.211
21
6586369.980
31
0.000
8
0
6
XKITLINE02
62
7
0
CIRCLE
10
635531.604
20
6586406.170
30
0.000
40
1.425
8
0
6
XKITLINE00
62
7
0
LINE
10
635532.538
20
6586407.247
30
0.000
11
635535.960
21
6586411.196
31
0.000
8
0
6
XKITLINE02
62
7
0
CIRCLE
10
635493.635
20
6586362.788
30
0.000
40
1.425
8
0
6
XKITLINE00
62
7
0
LINE
10
635494.533
20
6586363.894
30
0.000
11
635497.826
21
6586367.951
31
0.000
8
0
6
XKITLINE02
62
7
0
TEXT
10
635254.244
20
6586343.917
30
0.000
40
3.000
41
1.000
1
66203:001:0010
50
0.000
51
0.000
8
0
62
30
0
TEXT
10
635295.842
20
6586394.523
30
0.000
40
3.000
41
1.000
1
66201:001:0744
50
0.000
51
0.000
8
0
62
30
0
TEXT
10
635241.567
20
6586390.023
30
0.000
40
3.000
41
1.000
1
Arkna mõis, Arkna küla, Rakvere vald, Lääne-Viru maakond
50
0.000
51
0.000
8
0
62
30
0
TEXT
10
635519.857
20
6586637.823
30
0.000
40
3.000
41
1.000
1
66203:001:0032
50
0.000
51
0.000
8
0
62
30
0
TEXT
10
635467.595
20
6586633.323
30
0.000
40
3.000
41
1.000
1
Väljapõllu, Arkna küla, Rakvere vald, Lääne-Viru maakond
50
0.000
51
0.000
8
0
62
30
0
TEXT
10
635469.994
20
6586394.046
30
0.000
40
3.000
41
1.000
1
66203:001:0126
50
0.000
51
0.000
8
0
62
30
0
TEXT
10
635422.711
20
6586389.546
30
0.000
40
3.000
41
1.000
1
Paisu, Arkna küla, Rakvere vald, Lääne-Viru maakond
50
0.000
51
0.000
8
0
62
30
0
TEXT
10
635372.267
20
6586483.109
30
0.000
40
3.000
41
1.000
1
66203:001:0280
50
0.000
51
0.000
8
0
62
30
0
TEXT
10
635307.644
20
6586478.609
30
0.000
40
3.000
41
1.000
1
1 Tallinn-Narva tee, Arkna küla, Rakvere vald, Lääne-Viru maakond
50
0.000
51
0.000
8
0
62
30
0
TEXT
10
635315.986
20
6586358.148
30
0.000
40
3.000
41
1.000
1
66203:001:0011
50
0.000
51
0.000
8
0
62
30
0
TEXT
10
635267.804
20
6586353.648
30
0.000
40
3.000
41
1.000
1
Lehtla, Arkna küla, Rakvere vald, Lääne-Viru maakond
50
0.000
51
0.000
8
0
62
30
0
TEXT
10
635502.806
20
6586445.499
30
0.000
40
3.000
41
1.000
1
66203:001:0001
50
0.000
51
0.000
8
0
62
30
0
TEXT
10
635457.027
20
6586440.999
30
0.000
40
3.000
41
1.000
1
Kati, Arkna küla, Rakvere vald, Lääne-Viru maakond
50
0.000
51
0.000
8
0
62
30
0
TEXT
10
635500.807
20
6586445.686
30
0.000
40
6.600
41
0.900
1
Kati
50
-0.900
51
0.000
8
0
62
7
0
TEXT
10
635499.916
20
6586372.990
30
0.000
40
0.015
41
1.000
1
0,4kV
50
0.000
51
0.000
8
0
62
7
0
TEXT
10
635251.525
20
6586548.235
30
0.000
40
5.500
41
0.900
1
LK222714
50
0.000
51
0.000
8
0
62
5
0
TEXT
10
635499.996
20
6586372.956
30
0.000
40
0.018
41
1.000
1
F1
50
0.000
51
0.000
8
0
62
7
0
TEXT
10
635499.996
20
6586372.946
30
0.000
40
0.010
41
1.000
1
50A
50
0.000
51
0.000
8
0
62
7
0
TEXT
10
635499.898
20
6586372.958
30
0.000
40
0.018
41
1.000
1
F2
50
0.000
51
0.000
8
0
62
7
0
TEXT
10
635499.898
20
6586372.948
30
0.000
40
0.010
41
1.000
1
40A
50
0.000
51
0.000
8
0
62
7
0
TEXT
10
635499.801
20
6586372.958
30
0.000
40
0.018
41
1.000
1
F3
50
0.000
51
0.000
8
0
62
5
0
TEXT
10
635499.801
20
6586372.948
30
0.000
40
0.010
41
1.000
1
-
50
0.000
51
0.000
8
0
62
5
0
TEXT
10
635499.801
20
6586372.938
30
0.000
40
0.010
41
1.000
1
-/400
50
0.000
51
0.000
8
0
62
5
0
TEXT
10
635276.045
20
6586561.987
30
0.000
40
0.018
41
1.000
1
Q1@
50
0.000
51
0.000
8
0
62
5
0
TEXT
10
635276.045
20
6586561.977
30
0.000
40
0.010
41
1.000
1
-A
50
0.000
51
0.000
8
0
62
5
0
TEXT
10
635275.871
20
6586561.987
30
0.000
40
0.018
41
1.000
1
QF1@
50
0.000
51
0.000
8
0
62
5
0
TEXT
10
635275.871
20
6586561.977
30
0.000
40
0.010
41
1.000
1
-A
50
0.000
51
0.000
8
0
62
5
0
TEXT
10
635499.746
20
6586372.761
30
0.000
40
0.015
41
0.900
1
MPL412991
50
0.000
51
0.000
8
0
62
5
0
TEXT
10
635499.899
20
6586373.093
30
0.000
40
0.018
41
1.000
1
T
50
0.000
51
0.000
8
0
62
7
0
TEXT
10
635499.899
20
6586373.076
30
0.000
40
0.018
41
1.000
1
  50kVA
50
0.000
51
0.000
8
0
62
7
0
TEXT
10
635499.892
20
6586373.174
30
0.000
40
0.015
41
1.000
1
 4.0A
50
0.000
51
0.000
8
0
62
7
0
TEXT
10
635510.235
20
6586368.453
30
0.000
40
6.000
41
0.950
1
1
50
0.000
51
0.000
8
0
62
7
0
TEXT
10
635527.446
20
6586412.751
30
0.000
40
6.000
41
0.950
1
2
50
0.000
51
0.000
8
0
62
7
0
TEXT
10
635476.044
20
6586338.039
30
0.000
40
6.000
41
0.950
1
2
50
0.000
51
0.000
8
0
62
7
0
TEXT
10
635478.280
20
6586365.830
30
0.000
40
15.000
41
1.000
1
4
50
0.000
51
0.000
8
0
62
7
0
TEXT
10
635387.033
20
6586386.571
30
0.000
40
26.000
41
1.000
1
Paisu
50
0.000
51
0.000
8
0
62
7
0
TEXT
10
635492.819
20
6586404.063
30
0.000
40
5.000
41
1.000
1
7,3m tee
50
0.000
51
0.000
8
0
62
7
0
TEXT
10
635499.857
20
6586373.254
30
0.000
40
0.010
41
1.000
1
10kV
50
0.241
51
0.000
8
0
62
7
0
TEXT
10
635499.778
20
6586372.822
30
0.000
40
0.010
41
1.000
1
AXPK.4x120
50
89.360
51
0.000
8
0
62
5
0
TEXT
10
635499.799
20
6586372.830
30
0.000
40
0.010
41
1.000
1
LK222714
50
89.360
51
0.000
8
0
62
5
0
TEXT
10
635499.974
20
6586372.828
30
0.000
40
0.010
41
1.000
1
AXPK.4x35
50
89.360
51
0.000
8
0
62
7
0
TEXT
10
635499.994
20
6586372.844
30
0.000
40
0.010
41
1.000
1
Elamu
50
89.360
51
0.000
8
0
62
7
0
TEXT
10
635499.876
20
6586372.826
30
0.000
40
0.010
41
1.000
1
AXPK.4x35
50
89.360
51
0.000
8
0
62
7
0
TEXT
10
635499.896
20
6586372.830
30
0.000
40
0.010
41
1.000
1
Biotsehh
50
89.360
51
0.000
8
0
62
7
0
TEXT
10
635471.901
20
6586428.475
30
0.000
40
4.000
41
1.000
1
MPL412991
50
-37.913
51
0.000
8
0
62
5
0
TEXT
10
635255.746
20
6586557.395
30
0.000
40
1.200
41
1.000
1
PK - 3x10A
50
0.000
51
0.000
8
0
62
5
0
TEXT
10
635255.746
20
6586555.895
30
0.000
40
1.200
41
1.000
1
Ik1min - 667A
50
0.000
51
0.000
8
0
62
5
0
TEXT
10
635255.746
20
6586554.395
30
0.000
40
1.200
41
1.000
1
Uh\% - 0,81
50
0.000
51
0.000
8
0
62
5
0
LINE
10
635219.048
20
6586327.687
30
0.000
11
635219.048
21
6586669.687
31
0.000
8
0
6
XKITLINE00
62
0
0
LINE
10
635219.048
20
6586669.687
30
0.000
11
635712.854
21
6586669.687
31
0.000
8
0
6
XKITLINE00
62
0
0
LINE
10
635712.854
20
6586669.687
30
0.000
11
635712.854
21
6586327.687
31
0.000
8
0
6
XKITLINE00
62
0
0
LINE
10
635712.854
20
6586327.687
30
0.000
11
635219.048
21
6586327.687
31
0.000
8
0
6
XKITLINE00
62
0
0
ENDSEC
0
EOF
